  0
SECTION
  2
HEADER
  9
$ACADVER
  1
AC1009
  9
$DWGCODEPAGE
  3
ansi_932
  9
$INSBASE
 10
0.0
 20
0.0
 30
0.0
  9
$EXTMIN
 10
18486.86392215146
 20
-9282.756272238268
 30
0.0
  9
$EXTMAX
 10
23453.21593479759
 20
-7134.69915172429
 30
0.0
  9
$LIMMIN
 10
0.0
 20
0.0
  9
$LIMMAX
 10
12.0
 20
9.0
  9
$ORTHOMODE
 70
     0
  9
$REGENMODE
 70
     1
  9
$FILLMODE
 70
     1
  9
$QTEXTMODE
 70
     0
  9
$MIRRTEXT
 70
     1
  9
$DRAGMODE
 70
     2
  9
$LTSCALE
 40
1.0
  9
$OSMODE
 70
    37
  9
$ATTMODE
 70
     1
  9
$TEXTSIZE
 40
0.2
  9
$TRACEWID
 40
0.05
  9
$TEXTSTYLE
  7
STANDARD
  9
$CLAYER
  8
0
  9
$CELTYPE
  6
BYLAYER
  9
$CECOLOR
 62
   256
  9
$DIMSCALE
 40
1.0
  9
$DIMASZ
 40
0.18
  9
$DIMEXO
 40
0.0625
  9
$DIMDLI
 40
0.38
  9
$DIMRND
 40
0.0
  9
$DIMDLE
 40
0.36
  9
$DIMEXE
 40
0.18
  9
$DIMTP
 40
0.0
  9
$DIMTM
 40
0.0
  9
$DIMTXT
 40
0.18
  9
$DIMCEN
 40
0.09
  9
$DIMTSZ
 40
0.0
  9
$DIMTOL
 70
     0
  9
$DIMLIM
 70
     0
  9
$DIMTIH
 70
     1
  9
$DIMTOH
 70
     1
  9
$DIMSE1
 70
     0
  9
$DIMSE2
 70
     0
  9
$DIMTAD
 70
     0
  9
$DIMZIN
 70
     0
  9
$DIMBLK
  1

  9
$DIMASO
 70
     1
  9
$DIMSHO
 70
     1
  9
$DIMPOST
  1

  9
$DIMAPOST
  1

  9
$DIMALT
 70
     0
  9
$DIMALTD
 70
     2
  9
$DIMALTF
 40
25.4
  9
$DIMLFAC
 40
1.0
  9
$DIMTOFL
 70
     0
  9
$DIMTVP
 40
0.0
  9
$DIMTIX
 70
     0
  9
$DIMSOXD
 70
     0
  9
$DIMSAH
 70
     0
  9
$DIMBLK1
  1

  9
$DIMBLK2
  1

  9
$DIMSTYLE
  2
STANDARD
  9
$DIMCLRD
 70
     0
  9
$DIMCLRE
 70
     0
  9
$DIMCLRT
 70
     0
  9
$DIMTFAC
 40
1.0
  9
$DIMGAP
 40
0.09
  9
$LUNITS
 70
     2
  9
$LUPREC
 70
     4
  9
$SKETCHINC
 40
0.1
  9
$FILLETRAD
 40
0.5
  9
$AUNITS
 70
     0
  9
$AUPREC
 70
     0
  9
$MENU
  1
.
  9
$ELEVATION
 40
0.0
  9
$PELEVATION
 40
0.0
  9
$THICKNESS
 40
0.0
  9
$LIMCHECK
 70
     0
  9
$CHAMFERA
 40
0.0
  9
$CHAMFERB
 40
0.0
  9
$SKPOLY
 70
     0
  9
$TDCREATE
 40
2458652.368818298
  9
$TDUPDATE
 40
2458652.368824444
  9
$TDINDWG
 40
0.0000000116
  9
$TDUSRTIMER
 40
0.0000000116
  9
$USRTIMER
 70
     1
  9
$ANGBASE
 50
0.0
  9
$ANGDIR
 70
     0
  9
$PDMODE
 70
     0
  9
$PDSIZE
 40
-5.0
  9
$PLINEWID
 40
0.0
  9
$COORDS
 70
     1
  9
$SPLFRAME
 70
     0
  9
$SPLINETYPE
 70
     6
  9
$SPLINESEGS
 70
     8
  9
$ATTDIA
 70
     0
  9
$ATTREQ
 70
     1
  9
$HANDLING
 70
     1
  9
$HANDSEED
  5
A75
  9
$SURFTAB1
 70
     6
  9
$SURFTAB2
 70
     6
  9
$SURFTYPE
 70
     6
  9
$SURFU
 70
     6
  9
$SURFV
 70
     6
  9
$UCSNAME
  2

  9
$UCSORG
 10
0.0
 20
0.0
 30
0.0
  9
$UCSXDIR
 10
1.0
 20
0.0
 30
0.0
  9
$UCSYDIR
 10
0.0
 20
1.0
 30
0.0
  9
$PUCSNAME
  2

  9
$PUCSORG
 10
0.0
 20
0.0
 30
0.0
  9
$PUCSXDIR
 10
1.0
 20
0.0
 30
0.0
  9
$PUCSYDIR
 10
0.0
 20
1.0
 30
0.0
  9
$USERI1
 70
     0
  9
$USERI2
 70
     0
  9
$USERI3
 70
     0
  9
$USERI4
 70
     0
  9
$USERI5
 70
     0
  9
$USERR1
 40
0.0
  9
$USERR2
 40
0.0
  9
$USERR3
 40
0.0
  9
$USERR4
 40
0.0
  9
$USERR5
 40
0.0
  9
$WORLDVIEW
 70
     1
  9
$SHADEDGE
 70
     3
  9
$SHADEDIF
 70
    70
  9
$TILEMODE
 70
     1
  9
$MAXACTVP
 70
    64
  9
$PLIMCHECK
 70
     0
  9
$PEXTMIN
 10
1.000000000000000E+20
 20
1.000000000000000E+20
 30
1.000000000000000E+20
  9
$PEXTMAX
 10
-1.000000000000000E+20
 20
-1.000000000000000E+20
 30
-1.000000000000000E+20
  9
$PLIMMIN
 10
0.0
 20
0.0
  9
$PLIMMAX
 10
12.0
 20
9.0
  9
$UNITMODE
 70
     0
  9
$VISRETAIN
 70
     1
  9
$PLINEGEN
 70
     0
  9
$PSLTSCALE
 70
     1
  0
ENDSEC
  0
SECTION
  2
TABLES
  0
TABLE
  2
VPORT
 70
     1
  0
VPORT
  2
*ACTIVE
 70
     0
 10
0.0
 20
0.0
 11
1.0
 21
1.0
 12
20970.03992847453
 22
-8208.727711981279
 13
0.0
 23
0.0
 14
0.5
 24
0.5
 15
0.5
 25
0.5
 16
0.0
 26
0.0
 36
1.0
 17
0.0
 27
0.0
 37
0.0
 40
2148.057120513979
 41
2.312020460358057
 42
50.0
 43
0.0
 44
0.0
 50
0.0
 51
0.0
 71
     0
 72
   100
 73
     1
 74
     3
 75
     0
 76
     0
 77
     0
 78
     0
  0
ENDTAB
  0
TABLE
  2
LTYPE
 70
    11
  0
LTYPE
  2
CONTINUOUS
 70
     0
  3
Solid line
 72
    65
 73
     0
 40
0.0
  0
LTYPE
  2
破線
 70
     0
  3
破線: __ __ __ __ __ __ __ __ __ __ __ __ __
 72
    65
 73
     2
 40
2.0
 49
1.0
 49
-1.0
  0
LTYPE
  2
一点鎖線
 70
     0
  3
一点鎖線: ____ . ____ . ____ . ____ . ____ . ____
 72
    65
 73
     4
 40
18.0
 49
12.0
 49
-2.0
 49
2.0
 49
-2.0
  0
LTYPE
  2
二点鎖線
 70
     0
  3
二点鎖線: ____ . . ____ . . ____ . . ____ . . ____ 
 72
    65
 73
     6
 40
22.0
 49
12.0
 49
-2.0
 49
2.0
 49
-2.0
 49
2.0
 49
-2.0
  0
LTYPE
  2
DASHED
 70
     0
  3
Dashed
 72
    65
 73
     2
 40
15.0
 49
7.0
 49
-8.0
  0
LTYPE
  2
DOTTED
 70
     0
  3
Dotted
 72
    65
 73
     2
 40
1.0
 49
0.0
 49
-1.0
  0
LTYPE
  2
DOT_CENTER
 70
     0
  3
Dot_Center
 72
    65
 73
     4
 40
14.0
 49
12.0
 49
-1.0
 49
0.0
 49
-1.0
  0
LTYPE
  2
LONG_DASHED
 70
     0
  3
Long_Dashed
 72
    65
 73
     2
 40
15.0
 49
10.0
 49
-5.0
  0
LTYPE
  2
DASH_CENTER
 70
     0
  3
Dash_Center
 72
    65
 73
     4
 40
14.0
 49
11.0
 49
-1.0
 49
1.0
 49
-1.0
  0
LTYPE
  2
PHANTOM
 70
     0
  3
Phantom
 72
    65
 73
     6
 40
13.0
 49
10.0
 49
-1.0
 49
0.0
 49
-1.0
 49
0.0
 49
-1.0
  0
LTYPE
  2
CENTER_DASH_DASH
 70
     0
  3
Center_Dash_Dash
 72
    65
 73
     6
 40
14.0
 49
9.0
 49
-1.0
 49
1.0
 49
-1.0
 49
1.0
 49
-1.0
  0
ENDTAB
  0
TABLE
  2
LAYER
 70
     9
  0
LAYER
  2
0
 70
     0
 62
     7
  6
CONTINUOUS
  0
LAYER
  2
CENTERLINE_LAYER
 70
     0
 62
     1
  6
一点鎖線
  0
LAYER
  2
DASH_LAYER
 70
     0
 62
     6
  6
破線
  0
LAYER
  2
SOLID_LAYER
 70
     0
 62
     7
  6
CONTINUOUS
  0
LAYER
  2
THICK_SOLID_LAYER
 70
     0
 62
     7
  6
CONTINUOUS
  0
LAYER
  2
DIMENSION_LAYER
 70
     0
 62
     3
  6
CONTINUOUS
  0
LAYER
  2
HATCH_LAYER
 70
     0
 62
     4
  6
CONTINUOUS
  0
LAYER
  2
HIDDEN_LAYER
 70
     0
 62
    -7
  6
CONTINUOUS
  0
LAYER
  2
1
 70
     0
 62
     7
  6
CONTINUOUS
  0
ENDTAB
  0
TABLE
  2
STYLE
 70
     2
  0
STYLE
  2
STANDARD
 70
     0
 40
0.0
 41
1.0
 50
0.0
 71
     0
 42
0.0
  3
txt.shx
  4

  0
STYLE
  2
標準
 70
     0
 40
0.0
 41
0.667
 50
0.0
 71
     0
 42
0.2
  3

  4

  0
ENDTAB
  0
TABLE
  2
VIEW
 70
     0
  0
ENDTAB
  0
TABLE
  2
UCS
 70
     0
  0
ENDTAB
  0
TABLE
  2
APPID
 70
    96
  0
APPID
  2
ACAD
 70
     0
  0
APPID
  2
CAXA_DRAFT_PAPERORDER
 70
     0
  0
APPID
  2
CAXA_DRAFT_ROUGH
 70
     0
  0
APPID
  2
CAXA_DRAFT_ROUGH_STD
 70
     0
  0
APPID
  2
CAXA_DRAFT_FORMATED_TXT
 70
     0
  0
APPID
  2
CAXA_DRAFT_DATUM
 70
     0
  0
APPID
  2
CAXA_DRAFT_WELD
 70
     0
  0
APPID
  2
CAXA_DRAFT_GEOTOL
 70
     0
  0
APPID
  2
CAXA_DRAFT_CUTS
 70
     0
  0
APPID
  2
CAXA_DRAFT_DIMHALF
 70
     0
  0
APPID
  2
CAXA_DRAFT_DIMRAY
 70
     0
  0
APPID
  2
CAXA_DRAFT_DIMARCLEN
 70
     0
  0
APPID
  2
CAXA_DRAFT_DIMTAPER
 70
     0
  0
APPID
  2
CAXA_DRAFT_DIMPITCH
 70
     0
  0
APPID
  2
CAXA_DRAFT_DIMCOORD
 70
     0
  0
APPID
  2
CAXA_DRAFT_DIMORIALIGN
 70
     0
  0
APPID
  2
CAXA_DRAFT_DIMHOLEPOS
 70
     0
  0
APPID
  2
CAXA_DRAFT_DIMCRDLEADER
 70
     0
  0
APPID
  2
CAXA_DRAFT_DIMCHAMFER
 70
     0
  0
APPID
  2
CAXA_DRAFT_DIMCENTERHOLE
 70
     0
  0
APPID
  2
CAXA_DRAFT_DIMLEADER
 70
     0
  0
APPID
  2
CAXA_DRAFT_DIMCRDLIST
 70
     0
  0
APPID
  2
CAXA_DRAFT_PAPERSCALE
 70
     0
  0
APPID
  2
CAXA_DRAFT_FILEVERSION
 70
     0
  0
APPID
  2
CAXA_DRAFT_PRODUCTVERSION
 70
     0
  0
APPID
  2
CAXA_DRAFT_DATATABLE
 70
     0
  0
APPID
  2
CAXA_DRAFT_PAPERINFO
 70
     0
  0
APPID
  2
CAXA_DRAFT_PAPERFRAME
 70
     0
  0
APPID
  2
CAXA_DRAFT_PAPERTITLE
 70
     0
  0
APPID
  2
CAXA_DRAFT_PAPERPAREATABLE
 70
     0
  0
APPID
  2
CAXA_DRAFT_PARTNO
 70
     0
  0
APPID
  2
CAXA_DRAFT_BOMTABLE
 70
     0
  0
APPID
  2
CAXA_DRAFT_BLKREF_EXTATT
 70
     0
  0
APPID
  2
CAXA_DRAFT_DBVIEWDATA
 70
     0
  0
APPID
  2
CAXA_DRAFT_DIMSYMTOL
 70
     0
  0
APPID
  2
CAXA_DRAFT_DIMASSEMTOL
 70
     0
  0
APPID
  2
CAXA_DRAFT_DIMANGLETOL
 70
     0
  0
APPID
  2
CAXA_DRAFT_DRAFTDATA
 70
     0
  0
APPID
  2
CAXA_DRAFT_DIMORIGIN
 70
     0
  0
APPID
  2
CAXA_DRAFT_ENLARGE_EDGE
 70
     0
  0
APPID
  2
CAXA_DRAFT_DIMSTY_T_VPOS
 70
     0
  0
APPID
  2
CAXA_DRAFT_DIMSTY_AT_VPOS
 70
     0
  0
APPID
  2
CAXA_DRAFT_BLKHIDE
 70
     0
  0
APPID
  2
CAXA_DRAFT_DIMARROWREVERSE
 70
     0
  0
APPID
  2
CAXA_DRAFT_TXTSTYLE
 70
     0
  0
APPID
  2
CAXA_DRAFT_ATTRIBUTE_2PT
 70
     0
  0
APPID
  2
CAXA_DRAFT_ATTDEF_2PT
 70
     0
  0
APPID
  2
CAXA_DRAFT_DIMBIGARC
 70
     0
  0
APPID
  2
CAXA_DRAFT_ISNEB09R3
 70
     0
  0
APPID
  2
CAXA_DRAFT_WIPEOUT_B_HIDE
 70
     0
  0
APPID
  2
CAXA_DRAFT_BLKREF_SYMBOL
 70
     0
  0
APPID
  2
CAXA_DRAFT_ENL_COMMENTS
 70
     0
  0
APPID
  2
CAXA_DRAFT_ENL_TSCALE
 70
     0
  0
APPID
  2
CAXA_DRAFT_TXTSCALE
 70
     0
  0
APPID
  2
CAXA_DRAFT_KEEPLTSEG_ZOOM
 70
     0
  0
APPID
  2
CAXA_DRAFT_SPECLIB
 70
     0
  0
APPID
  2
CAXA_DRAFT_DATUM_2011R2
 70
     0
  0
APPID
  2
CAXA_DRAFT_ROUGH_2011R2
 70
     0
  0
APPID
  2
CAXA_DRAFT_GEOTOL_2011R2
 70
     0
  0
APPID
  2
CAXA_DRAFT_DMOVMAP_2011R3
 70
     0
  0
APPID
  2
CAXA_DRAFT_DDTSTY_2011R3
 70
     0
  0
APPID
  2
CAXA_DRAFT_SDTSTY_2011R3
 70
     0
  0
APPID
  2
CDRAFT_TXTROT_2011R3
 70
     0
  0
APPID
  2
CDRAFT_TOLOUT_2011R3
 70
     0
  0
APPID
  2
CAXA_DRAFT_DIMARCLENSTYLE
 70
     0
  0
APPID
  2
CAXA_DRAFT_DMOVMAP_2013
 70
     0
  0
APPID
  2
CAXA_DRAFT_DS_DLLNTYPE
 70
     0
  0
APPID
  2
CAXA_DRAFT_DS_LBLLNTYPE
 70
     0
  0
APPID
  2
CAXA_DRAFT_DS_RBLLNTYPE
 70
     0
  0
APPID
  2
CAXA_DRAFT_DS_ISFILLDFM
 70
     0
  0
APPID
  2
CAXA_DRAFT_DS_DISPZTOOL
 70
     0
  0
APPID
  2
CAXA_DRAFT_DS_SYMCOLOR
 70
     0
  0
APPID
  2
CAXA_DRAFT_HATCH_SCALE_ANG
 70
     0
  0
APPID
  2
CAXA_DRAFT_GEOTOL_ISFROMDW
 70
     0
  0
APPID
  2
CXDRAGDIADIMLNSTYLE
 70
     0
  0
APPID
  2
CXDRAGRADDIMLNSTYLE
 70
     0
  0
APPID
  2
CX_DBANNOTATE_SIMDIMORITXT
 70
     0
  0
APPID
  2
CX_DBANNOTATE_TXTLOCPARA
 70
     0
  0
APPID
  2
CX_DBANNOTATE_DRAGTXTLOC
 70
     0
  0
APPID
  2
USERSETTXTLOC
 70
     0
  0
APPID
  2
USERSETTXTLOCTYPE
 70
     0
  0
APPID
  2
USERSETTXTLOCPT
 70
     0
  0
APPID
  2
CAXA_DRAFT_IMAGE_BINARY
 70
     0
  0
APPID
  2
DIMTXTFRMSTYLE_2015R1
 70
     0
  0
APPID
  2
CAXA_DRAFT_GEOTOL_ISSHX
 70
     0
  0
APPID
  2
CAXA_SUPGRAPHICDIM
 70
     0
  0
APPID
  2
CAXA_GRAPHICARCLEN_HASLN
 70
     0
  0
APPID
  2
CAXA_GRAPHICDIM_OUT
 70
     0
  0
APPID
  2
CAXA_DATUM_LEADLNBKMODE
 70
     0
  0
APPID
  2
CX_DBDIM_CRDDIMLINEANDARRO
 70
     0
  0
APPID
  2
CX_DBDIM_TAPERANGLESTD
 70
     0
  0
APPID
  2
CX_DBATTRIBDEF_OPTIONALVAL
 70
     0
  0
APPID
  2
CX_DIMSTYLE_TXTFRAME
 70
     0
  0
APPID
  2
CX_DBDIM_TXTFRAME
 70
     0
  0
APPID
  2
CAXA_DRAFT_TABLEENT
 70
     0
  0
APPID
  2
ACAECLAYERSTANDARD
 70
     0
  0
ENDTAB
  0
TABLE
  2
DIMSTYLE
 70
     2
  0
DIMSTYLE
  2
STANDARD
 70
     0
  3

  4

  5

  6

  7

 40
1.0
 41
0.18
 42
0.0625
 43
0.38
 44
0.18
 45
0.0
 46
0.36
 47
0.0
 48
0.0
140
0.18
141
0.09
142
0.0
143
25.4
144
1.0
145
0.0
146
1.0
147
0.09
 71
     0
 72
     0
 73
     1
 74
     1
 75
     0
 76
     0
 77
     0
 78
     0
170
     0
171
     2
172
     0
173
     0
174
     0
175
     0
176
     0
177
     0
178
     0
  0
DIMSTYLE
  2
標準
 70
     0
  3

  4

  5
CAXARROW
  6

  7

 40
1.0
 41
4.0
 42
0.0
 43
10.0
 44
2.0
 45
0.0
 46
6.0
 47
0.0
 48
0.0
140
3.5
141
0.0
142
0.0
143
1.0
144
1.0
145
0.0
146
0.7071067811865475
147
0.625
 71
     0
 72
     0
 73
     0
 74
     0
 75
     0
 76
     0
 77
     1
 78
     8
170
     0
171
     2
172
     1
173
     0
174
     0
175
     0
176
     0
177
     0
178
     0
  0
ENDTAB
  0
ENDSEC
  0
SECTION
  2
BLOCKS
  0
BLOCK
  8
0
  2
$MODEL_SPACE
 70
     0
 10
0.0
 20
0.0
 30
0.0
  3
$MODEL_SPACE
  1

  0
ENDBLK
  5
21
  8
0
  0
BLOCK
 67
     1
  8
0
  2
$PAPER_SPACE
 70
     0
 10
0.0
 20
0.0
 30
0.0
  3
$PAPER_SPACE
  1

  0
ENDBLK
  5
1D
 67
     1
  8
0
  0
BLOCK
  8
0
  2
_CAXARROW
 70
     0
 10
0.0
 20
0.0
 30
0.0
  3
_CAXARROW
  1

  0
INSERT
  5
E4
  8
0
 62
     0
  2
*U31
 10
0.0
 20
0.0
 30
0.0
1001
ACAD
1002
{
1000
R14_HATCH_DATA
1000
E4
1011
1.0
1021
0.0
1031
0.0
1021
0.0
1031
0.0
1011
0.0
1021
1.0
1031
0.0
1021
1.0
1031
0.0
1011
0.0
1021
0.0
1031
1.0
1021
0.0
1031
1.0
1040
0.0
1010
0.0
1020
0.0
1030
1.0
1000
SOLID
1070
     1
1070
     1
1071
        1
1071
        0
1071
        3
1070
     1
1040
0.0
1040
0.0
1040
-1.0
1040
0.125
1070
     1
1040
-1.0
1040
0.125
1040
-1.0
1040
-0.125
1070
     1
1040
-1.0
1040
-0.125
1040
0.0
1040
0.0
1071
        0
1070
     0
1070
     1
1071
        1
1040
0.0
1040
0.0
1040
0.0
1002
}
  0
ENDBLK
  5
E6
  8
0
  0
BLOCK
  8
0
  2
_11__1
 70
     0
 10
0.0
 20
0.0
 30
0.0
  3
_11__1
  1

  0
LINE
  5
111
  8
1
  6
DOT_CENTER
 62
     2
 10
46.40097851275277
 20
82.24647346711936
 30
0.0
 11
46.40097851275277
 21
108.0260120968105
 31
0.0
  0
LINE
  5
112
  8
1
  6
DOT_CENTER
 62
     2
 10
18.40097851275277
 20
82.24647346711936
 30
0.0
 11
18.40097851275277
 21
108.2464734671194
 31
0.0
  0
LINE
  5
113
  8
1
  6
CONTINUOUS
 62
     7
 10
11.40097851275277
 20
92.99999999999818
 30
0.0
 11
11.40097851275277
 21
91.0
 31
0.0
  0
LINE
  5
114
  8
1
  6
CONTINUOUS
 62
     7
 10
11.40097851275277
 20
91.0
 30
0.0
 11
17.15968228675047
 21
91.0
 31
0.0
  0
LINE
  5
115
  8
1
  6
CONTINUOUS
 62
     7
 10
39.40097851275277
 20
93.0
 30
0.0
 11
53.40097851275277
 21
93.0
 31
0.0
  0
LINE
  5
116
  8
1
  6
CONTINUOUS
 62
     7
 10
11.40097851275277
 20
92.99999999999818
 30
0.0
 11
53.40097851275277
 21
93.0
 31
0.0
  0
LINE
  5
117
  8
1
  6
CONTINUOUS
 62
     7
 10
53.40097851275277
 20
93.0
 30
0.0
 11
53.40097851275277
 21
91.0
 31
0.0
  0
LINE
  5
118
  8
1
  6
DOT_CENTER
 62
     2
 10
32.40097851275277
 20
48.0942886904304
 30
0.0
 11
32.40097851275277
 21
106.0942886904304
 31
0.0
  0
LINE
  5
119
  8
1
  6
DOT_CENTER
 62
     2
 10
53.40097851275277
 20
17.86628385782024
 30
0.0
 11
53.40097851275277
 21
75.86628385782024
 31
0.0
  0
LINE
  5
11A
  8
1
  6
DOT_CENTER
 62
     2
 10
26.40097851275277
 20
35.0
 30
0.0
 11
22.40530643655075
 21
35.0
 31
0.0
  0
LINE
  5
11B
  8
1
  6
DOT_CENTER
 62
     2
 10
82.5362837917528
 20
35.0
 30
0.0
 11
27.40097851275277
 21
35.0
 31
0.0
  0
LINE
  5
11C
  8
1
  6
CONTINUOUS
 62
     7
 10
18.80417639555162
 20
88.89247932886065
 30
0.0
 11
15.40097851275277
 21
88.89247932886065
 31
0.0
  0
LINE
  5
11D
  8
1
  6
CONTINUOUS
 62
     7
 10
49.40097851275277
 20
78.11660695809951
 30
0.0
 11
49.40097851275277
 21
88.89247932886065
 31
0.0
  0
LINE
  5
11E
  8
1
  6
CONTINUOUS
 62
     7
 10
43.20737427835047
 20
76.11660695809951
 30
0.0
 11
47.40097851275277
 21
76.11660695809951
 31
0.0
  0
LINE
  5
11F
  8
1
  6
CONTINUOUS
 62
     7
 10
15.40097851275277
 20
88.89247932886065
 30
0.0
 11
15.40097851275277
 21
78.11660695809951
 31
0.0
  0
LINE
  5
120
  8
1
  6
CONTINUOUS
 62
     7
 10
22.20737427835047
 20
88.89247932886065
 30
0.0
 11
43.20737427835047
 21
88.89247932886065
 31
0.0
  0
LINE
  5
121
  8
1
  6
CONTINUOUS
 62
     7
 10
22.20737427835047
 20
59.32902263464712
 30
0.0
 11
22.20737427835047
 21
88.89247932886065
 31
0.0
  0
LINE
  5
122
  8
1
  6
CONTINUOUS
 62
     7
 10
49.40097851275277
 20
88.89247932886065
 30
0.0
 11
43.20737427835047
 21
88.89247932886065
 31
0.0
  0
LINE
  5
123
  8
1
  6
CONTINUOUS
 62
     7
 10
43.20737427835047
 20
88.89247932886065
 30
0.0
 11
22.20737427835047
 21
88.89247932886065
 31
0.0
  0
LINE
  5
124
  8
1
  6
CONTINUOUS
 62
     7
 10
58.35072598106126
 20
39.94974746830667
 30
0.0
 11
51.99417084275046
 21
46.30630260661019
 31
0.0
  0
LINE
  5
125
  8
1
  6
CONTINUOUS
 62
     7
 10
43.20737427835047
 20
88.89247932886065
 30
0.0
 11
43.20737427835047
 21
67.51950604220656
 31
0.0
  0
LINE
  5
126
  8
1
  6
CONTINUOUS
 62
     7
 10
43.72935043676989
 20
30.55189435989269
 30
0.0
 11
51.42277294971063
 21
28.28533673589118
 31
0.0
  0
LINE
  5
127
  8
1
  6
CONTINUOUS
 62
     7
 10
17.40097851275277
 20
76.11660695809951
 30
0.0
 11
22.20737427835047
 21
76.11660695809951
 31
0.0
  0
LINE
  5
128
  8
1
  6
CONTINUOUS
 62
     7
 10
17.15968228675047
 20
91.0
 30
0.0
 11
18.80417639555162
 21
88.89247932886065
 31
0.0
  0
LINE
  5
129
  8
1
  6
CONTINUOUS
 62
     7
 10
53.40097851275277
 20
91.0
 30
0.0
 11
17.15968228675047
 21
91.0
 31
0.0
  0
LINE
  5
12A
  8
1
  6
CONTINUOUS
 62
     7
 10
22.20737427835047
 20
88.89247932886065
 30
0.0
 11
18.80417639555162
 21
88.89247932886065
 31
0.0
  0
LINE
  5
12B
  8
1
  6
CONTINUOUS
 62
     7
 10
45.99778062995028
 20
88.89247932886065
 30
0.0
 11
47.64227473875144
 21
91.0
 31
0.0
  0
LINE
  5
12C
  8
1
  6
DOT_CENTER
 62
     2
 10
27.40097851275277
 20
35.0
 30
0.0
 11
26.40097851275277
 21
35.0
 31
0.0
  0
ARC
  5
12D
  8
1
  6
CONTINUOUS
 62
     7
 10
53.40097851275277
 20
35.0
 30
0.0
 40
7.000000000001672
 50
253.5845102254465
 51
44.99999999998939
  0
ARC
  5
12E
  8
1
  6
CONTINUOUS
 62
     7
 10
53.40097851275277
 20
35.0
 30
0.0
 40
35.00000000000023
 50
150.2215431420256
 51
180.0
  0
ARC
  5
12F
  8
1
  6
CONTINUOUS
 62
     7
 10
53.40097851275277
 20
35.0
 30
0.0
 40
35.0
 50
180.0
 51
106.9325570878706
  0
ARC
  5
130
  8
1
  6
CONTINUOUS
 62
     2
 10
53.40097851275277
 20
35.0
 30
0.0
 40
26.0
 50
180.0
 51
110.4051577742465
  0
ARC
  5
131
  8
1
  6
CONTINUOUS
 62
     2
 10
53.40097851275277
 20
35.0
 30
0.0
 40
26.00000000000137
 50
165.8560733372845
 51
180.0000000000001
  0
ARC
  5
132
  8
1
  6
CONTINUOUS
 62
     2
 10
53.40097851275277
 20
35.0
 30
0.0
 40
13.00000000000361
 50
195.3642840078214
 51
102.4210296071983
  0
ARC
  5
133
  8
1
  6
CONTINUOUS
 62
     2
 10
53.40097851275277
 20
35.0
 30
0.0
 40
27.00000000000084
 50
164.0807425387761
 51
180.0000000000001
  0
ARC
  5
134
  8
1
  6
CONTINUOUS
 62
     2
 10
53.40097851275277
 20
35.0
 30
0.0
 40
27.0
 50
180.0
 51
110.1971573431159
  0
ARC
  5
135
  8
1
  6
CONTINUOUS
 62
     7
 10
73.20737427835047
 20
67.51950604220656
 30
0.0
 40
30.0
 50
180.0
 51
224.9999999999926
  0
ARC
  5
136
  8
1
  6
CONTINUOUS
 62
     7
 10
52.20737427835047
 20
59.32902263464712
 30
0.0
 40
30.0
 50
179.9999999999999
 51
253.5845102254993
  0
ARC
  5
137
  8
1
  6
CONTINUOUS
 62
     7
 10
17.40097851275277
 20
78.11660695809951
 30
0.0
 40
2.0
 50
180.0
 51
270.0
  0
ARC
  5
138
  8
1
  6
CONTINUOUS
 62
     7
 10
47.40097851275277
 20
78.11660695809951
 30
0.0
 40
2.0
 50
270.0
 51
359.9999999999996
  0
ENDBLK
  5
13A
  8
0
  0
BLOCK
  8
0
  2
_1__2
 70
     0
 10
0.0
 20
0.0
 30
0.0
  3
_1__2
  1

  0
LINE
  5
13D
  8
1
  6
DOT_CENTER
 62
     2
 10
-20.0
 20
0.0
 30
0.0
 11
-20.0
 21
22.57189822624969
 31
0.0
  0
LINE
  5
13E
  8
1
  6
CONTINUOUS
 62
     7
 10
-4.0
 20
19.0
 30
0.0
 11
-36.0
 21
19.0
 31
0.0
  0
LINE
  5
13F
  8
1
  6
CONTINUOUS
 62
     7
 10
0.0
 20
5.0
 30
0.0
 11
0.0
 21
15.0
 31
0.0
  0
LINE
  5
140
  8
1
  6
CONTINUOUS
 62
     7
 10
-8.5
 20
5.0
 30
0.0
 11
0.0
 21
5.0
 31
0.0
  0
LINE
  5
141
  8
1
  6
CONTINUOUS
 62
     7
 10
-40.0
 20
15.0
 30
0.0
 11
-40.0
 21
5.0
 31
0.0
  0
LINE
  5
142
  8
1
  6
CONTINUOUS
 62
     7
 10
-31.5
 20
5.0
 30
0.0
 11
-8.5
 21
5.0
 31
0.0
  0
LINE
  5
143
  8
1
  6
CONTINUOUS
 62
     7
 10
-31.5
 20
5.0
 30
0.0
 11
-8.5
 21
5.0
 31
0.0
  0
LINE
  5
144
  8
1
  6
CONTINUOUS
 62
     7
 10
-40.0
 20
5.0
 30
0.0
 11
-31.5
 21
5.0
 31
0.0
  0
LINE
  5
145
  8
1
  6
CONTINUOUS
 62
     7
 10
-8.5
 20
0.0
 30
0.0
 11
-8.5
 21
5.0
 31
0.0
  0
LINE
  5
146
  8
1
  6
CONTINUOUS
 62
     7
 10
-31.5
 20
0.0
 30
0.0
 11
-8.5
 21
0.0
 31
0.0
  0
LINE
  5
147
  8
1
  6
CONTINUOUS
 62
     7
 10
-31.5
 20
5.0
 30
0.0
 11
-31.5
 21
0.0
 31
0.0
  0
LINE
  5
148
  8
1
  6
CONTINUOUS
 62
     7
 10
-32.0
 20
5.0
 30
0.0
 11
-32.0
 21
15.0
 31
0.0
  0
LINE
  5
149
  8
1
  6
CONTINUOUS
 62
     7
 10
-31.0
 20
15.0
 30
0.0
 11
-31.0
 21
5.0
 31
0.0
  0
LINE
  5
14A
  8
1
  6
CONTINUOUS
 62
     7
 10
-22.0
 20
5.0
 30
0.0
 11
-22.0
 21
15.0
 31
0.0
  0
LINE
  5
14B
  8
1
  6
CONTINUOUS
 62
     7
 10
-18.0
 20
15.0
 30
0.0
 11
-18.0
 21
5.0
 31
0.0
  0
LINE
  5
14C
  8
1
  6
CONTINUOUS
 62
     7
 10
-9.0
 20
5.0
 30
0.0
 11
-9.0
 21
15.0
 31
0.0
  0
LINE
  5
14D
  8
1
  6
CONTINUOUS
 62
     7
 10
-8.0
 20
15.0
 30
0.0
 11
-8.0
 21
5.0
 31
0.0
  0
LINE
  5
14E
  8
1
  6
CONTINUOUS
 62
     7
 10
-22.0
 20
15.0
 30
0.0
 11
-18.0
 21
15.0
 31
0.0
  0
LINE
  5
14F
  8
1
  6
CONTINUOUS
 62
     7
 10
-32.0
 20
15.0
 30
0.0
 11
-31.0
 21
15.0
 31
0.0
  0
LINE
  5
150
  8
1
  6
CONTINUOUS
 62
     7
 10
-8.0
 20
15.0
 30
0.0
 11
-9.0
 21
15.0
 31
0.0
  0
ARC
  5
151
  8
1
  6
CONTINUOUS
 62
     7
 10
-36.0
 20
15.0
 30
0.0
 40
4.0
 50
90.0
 51
180.0000000000001
  0
ARC
  5
152
  8
1
  6
CONTINUOUS
 62
     7
 10
-4.0
 20
15.0
 30
0.0
 40
4.0
 50
0.0
 51
90.0
  0
ARC
  5
153
  8
1
  6
CONTINUOUS
 62
     7
 10
-36.0
 20
15.0
 30
0.0
 40
4.0
 50
0.0000000000000254
 51
90.0
  0
ARC
  5
154
  8
1
  6
CONTINUOUS
 62
     7
 10
-27.0
 20
15.0
 30
0.0
 40
4.0
 50
90.0
 51
180.0000000000002
  0
ARC
  5
155
  8
1
  6
CONTINUOUS
 62
     7
 10
-26.0
 20
15.0
 30
0.0
 40
4.0
 50
0.0
 51
90.0
  0
ARC
  5
156
  8
1
  6
CONTINUOUS
 62
     7
 10
-14.0
 20
15.0
 30
0.0
 40
4.0
 50
90.0
 51
180.0000000000001
  0
ARC
  5
157
  8
1
  6
CONTINUOUS
 62
     7
 10
-13.0
 20
15.0
 30
0.0
 40
4.0
 50
359.9999999999999
 51
90.0
  0
ARC
  5
158
  8
1
  6
CONTINUOUS
 62
     7
 10
-4.0
 20
15.0
 30
0.0
 40
4.0
 50
90.0
 51
180.0000000000001
  0
ENDBLK
  5
15A
  8
0
  0
BLOCK
  8
0
  2
_11__3
 70
     0
 10
0.0
 20
0.0
 30
0.0
  3
_11__3
  1

  0
LINE
  5
15D
  8
1
  6
DOT_CENTER
 62
     2
 10
-26.40097851274913
 20
35.0
 30
0.0
 11
-27.40097851274913
 21
35.0
 31
0.0
  0
LINE
  5
15E
  8
1
  6
CONTINUOUS
 62
     7
 10
-47.64227473875144
 20
91.0
 30
0.0
 11
-45.99778062995028
 21
88.89247932886065
 31
0.0
  0
LINE
  5
15F
  8
1
  6
CONTINUOUS
 62
     7
 10
-18.80417639555162
 20
88.89247932886065
 30
0.0
 11
-22.20737427835047
 21
88.89247932886065
 31
0.0
  0
LINE
  5
160
  8
1
  6
CONTINUOUS
 62
     7
 10
-17.15968228675047
 20
91.0
 30
0.0
 11
-53.40097851274913
 21
91.0
 31
0.0
  0
LINE
  5
161
  8
1
  6
CONTINUOUS
 62
     7
 10
-18.80417639555162
 20
88.89247932886065
 30
0.0
 11
-17.15968228675047
 21
91.0
 31
0.0
  0
LINE
  5
162
  8
1
  6
CONTINUOUS
 62
     7
 10
-22.20737427835047
 20
76.11660695809951
 30
0.0
 11
-17.40097851274913
 21
76.11660695809951
 31
0.0
  0
LINE
  5
163
  8
1
  6
CONTINUOUS
 62
     7
 10
-51.42277294971063
 20
28.28533673589118
 30
0.0
 11
-43.72935043676989
 21
30.55189435989269
 31
0.0
  0
LINE
  5
164
  8
1
  6
CONTINUOUS
 62
     7
 10
-43.20737427835047
 20
67.51950604220656
 30
0.0
 11
-43.20737427835047
 21
88.89247932886065
 31
0.0
  0
LINE
  5
165
  8
1
  6
CONTINUOUS
 62
     7
 10
-51.99417084275046
 20
46.30630260661019
 30
0.0
 11
-58.35072598106126
 21
39.94974746830667
 31
0.0
  0
LINE
  5
166
  8
1
  6
CONTINUOUS
 62
     7
 10
-22.20737427835047
 20
88.89247932886065
 30
0.0
 11
-43.20737427835047
 21
88.89247932886065
 31
0.0
  0
LINE
  5
167
  8
1
  6
CONTINUOUS
 62
     7
 10
-43.20737427835047
 20
88.89247932886065
 30
0.0
 11
-49.40097851274913
 21
88.89247932886065
 31
0.0
  0
LINE
  5
168
  8
1
  6
CONTINUOUS
 62
     7
 10
-22.20737427835047
 20
88.89247932886065
 30
0.0
 11
-22.20737427835047
 21
59.32902263464712
 31
0.0
  0
LINE
  5
169
  8
1
  6
CONTINUOUS
 62
     7
 10
-43.20737427835047
 20
88.89247932886065
 30
0.0
 11
-22.20737427835047
 21
88.89247932886065
 31
0.0
  0
LINE
  5
16A
  8
1
  6
CONTINUOUS
 62
     7
 10
-15.40097851274913
 20
78.11660695809951
 30
0.0
 11
-15.40097851274913
 21
88.89247932886065
 31
0.0
  0
LINE
  5
16B
  8
1
  6
CONTINUOUS
 62
     7
 10
-47.40097851274913
 20
76.11660695809951
 30
0.0
 11
-43.20737427835047
 21
76.11660695809951
 31
0.0
  0
LINE
  5
16C
  8
1
  6
CONTINUOUS
 62
     7
 10
-49.40097851274913
 20
88.89247932886065
 30
0.0
 11
-49.40097851274913
 21
78.11660695809951
 31
0.0
  0
LINE
  5
16D
  8
1
  6
CONTINUOUS
 62
     7
 10
-15.40097851274913
 20
88.89247932886065
 30
0.0
 11
-18.80417639555162
 21
88.89247932886065
 31
0.0
  0
LINE
  5
16E
  8
1
  6
DOT_CENTER
 62
     2
 10
-27.40097851274913
 20
35.0
 30
0.0
 11
-82.53628379174916
 21
35.0
 31
0.0
  0
LINE
  5
16F
  8
1
  6
DOT_CENTER
 62
     2
 10
-22.40530643655075
 20
35.0
 30
0.0
 11
-26.40097851274913
 21
35.0
 31
0.0
  0
LINE
  5
170
  8
1
  6
DOT_CENTER
 62
     2
 10
-53.40097851274913
 20
75.86628385782024
 30
0.0
 11
-53.40097851274913
 21
17.86628385782024
 31
0.0
  0
LINE
  5
171
  8
1
  6
DOT_CENTER
 62
     2
 10
-32.40097851274913
 20
106.0942886904304
 30
0.0
 11
-32.40097851274913
 21
48.0942886904304
 31
0.0
  0
LINE
  5
172
  8
1
  6
CONTINUOUS
 62
     7
 10
-53.40097851274913
 20
91.0
 30
0.0
 11
-53.40097851274913
 21
93.0
 31
0.0
  0
LINE
  5
173
  8
1
  6
CONTINUOUS
 62
     7
 10
-53.40097851274913
 20
93.0
 30
0.0
 11
-11.40097851274913
 21
92.99999999999818
 31
0.0
  0
LINE
  5
174
  8
1
  6
CONTINUOUS
 62
     7
 10
-53.40097851274913
 20
93.0
 30
0.0
 11
-39.40097851274913
 21
93.0
 31
0.0
  0
LINE
  5
175
  8
1
  6
CONTINUOUS
 62
     7
 10
-17.15968228675047
 20
91.0
 30
0.0
 11
-11.40097851274913
 21
91.0
 31
0.0
  0
LINE
  5
176
  8
1
  6
CONTINUOUS
 62
     7
 10
-11.40097851274913
 20
91.0
 30
0.0
 11
-11.40097851274913
 21
92.99999999999818
 31
0.0
  0
LINE
  5
177
  8
1
  6
DOT_CENTER
 62
     2
 10
-18.40097851274913
 20
108.2464734671194
 30
0.0
 11
-18.40097851274913
 21
82.24647346711936
 31
0.0
  0
LINE
  5
178
  8
1
  6
DOT_CENTER
 62
     2
 10
-46.40097851274913
 20
108.0260120968105
 30
0.0
 11
-46.40097851274913
 21
82.24647346711936
 31
0.0
  0
ARC
  5
179
  8
1
  6
CONTINUOUS
 62
     2
 10
-53.40097851274913
 20
35.0
 30
0.0
 40
27.00000000000066
 50
69.80284265689274
 51
0.0000000000000905
  0
ARC
  5
17A
  8
1
  6
CONTINUOUS
 62
     2
 10
-53.40097851274913
 20
35.0
 30
0.0
 40
27.0
 50
0.0
 51
15.91925746122398
  0
ARC
  5
17B
  8
1
  6
CONTINUOUS
 62
     2
 10
-53.40097851274913
 20
35.0
 30
0.0
 40
13.00000000000134
 50
77.57897039280002
 51
344.6357159921744
  0
ARC
  5
17C
  8
1
  6
CONTINUOUS
 62
     2
 10
-53.40097851274913
 20
35.0
 30
0.0
 40
26.0
 50
0.0
 51
14.14392666271563
  0
ARC
  5
17D
  8
1
  6
CONTINUOUS
 62
     2
 10
-53.40097851274913
 20
35.0
 30
0.0
 40
25.9999999999975
 50
69.59484222575972
 51
0.0000000000001096
  0
ARC
  5
17E
  8
1
  6
CONTINUOUS
 62
     7
 10
-53.40097851274913
 20
35.0
 30
0.0
 40
34.99999999999866
 50
73.0674429121352
 51
0.0000000000001279
  0
ARC
  5
17F
  8
1
  6
CONTINUOUS
 62
     7
 10
-53.40097851274913
 20
35.0
 30
0.0
 40
35.0
 50
0.0
 51
29.77845685797705
  0
ARC
  5
180
  8
1
  6
CONTINUOUS
 62
     7
 10
-53.40097851274913
 20
35.0
 30
0.0
 40
7.00000000000504
 50
135.0000000000315
 51
286.4154897745163
  0
ARC
  5
181
  8
1
  6
CONTINUOUS
 62
     7
 10
-47.40097851274913
 20
78.11660695809951
 30
0.0
 40
2.0
 50
179.9999999999996
 51
270.0
  0
ARC
  5
182
  8
1
  6
CONTINUOUS
 62
     7
 10
-17.40097851274913
 20
78.11660695809951
 30
0.0
 40
2.0
 50
270.0
 51
0.0
  0
ARC
  5
183
  8
1
  6
CONTINUOUS
 62
     7
 10
-52.20737427835047
 20
59.32902263464712
 30
0.0
 40
30.00000000000133
 50
286.4154897744996
 51
0.0000000000000136
  0
ARC
  5
184
  8
1
  6
CONTINUOUS
 62
     7
 10
-73.20737427835047
 20
67.51950604220656
 30
0.0
 40
30.00000000000249
 50
315.0000000000049
 51
359.9999999999999
  0
ENDBLK
  5
186
  8
0
  0
BLOCK
  8
0
  2
_9__4
 70
     0
 10
0.0
 20
0.0
 30
0.0
  3
_9__4
  1

  0
LINE
  5
189
  8
1
  6
CONTINUOUS
 62
     2
 10
0.0
 20
21.0
 30
0.0
 11
0.0
 21
21.0
 31
0.0
  0
LINE
  5
18A
  8
1
  6
CONTINUOUS
 62
     2
 10
-63.0
 20
33.1106033608703
 30
0.0
 11
-63.0
 21
21.0
 31
0.0
  0
LINE
  5
18B
  8
1
  6
CONTINUOUS
 62
     2
 10
0.0
 20
21.0
 30
0.0
 11
0.0
 21
33.11060336087394
 31
0.0
  0
LINE
  5
18C
  8
1
  6
CONTINUOUS
 62
     2
 10
-21.0
 20
21.0
 30
0.0
 11
0.0
 21
21.0
 31
0.0
  0
LINE
  5
18D
  8
1
  6
CONTINUOUS
 62
     2
 10
-13.22351506849009
 20
21.0
 30
0.0
 11
-13.22351506849009
 21
37.08022224727938
 31
0.0
  0
LINE
  5
18E
  8
1
  6
CONTINUOUS
 62
     2
 10
-18.41966749108178
 20
21.0
 30
0.0
 11
-18.41966749108178
 21
37.08022224727938
 31
0.0
  0
LINE
  5
18F
  8
1
  6
CONTINUOUS
 62
     2
 10
-44.58033250892186
 20
35.02503295418683
 30
0.0
 11
-44.58033250892186
 21
21.0
 31
0.0
  0
LINE
  5
190
  8
1
  6
CONTINUOUS
 62
     2
 10
-49.77648493150991
 20
37.08022224727938
 30
0.0
 11
-49.77648493150991
 21
21.0
 31
0.0
  0
LINE
  5
191
  8
1
  6
CONTINUOUS
 62
     2
 10
-21.0
 20
21.0
 30
0.0
 11
-21.0
 21
0.0
 31
0.0
  0
LINE
  5
192
  8
1
  6
CONTINUOUS
 62
     2
 10
-25.5
 20
21.0
 30
0.0
 11
-21.0
 21
21.0
 31
0.0
  0
LINE
  5
193
  8
1
  6
CONTINUOUS
 62
     2
 10
-42.0
 20
0.0
 30
0.0
 11
-42.0
 21
21.0
 31
0.0
  0
LINE
  5
194
  8
1
  6
CONTINUOUS
 62
     2
 10
-63.0
 20
21.0
 30
0.0
 11
-42.0
 21
21.0
 31
0.0
  0
LINE
  5
195
  8
1
  6
CONTINUOUS
 62
     2
 10
-25.5
 20
0.0
 30
0.0
 11
-21.0
 21
0.0
 31
0.0
  0
LINE
  5
196
  8
1
  6
CONTINUOUS
 62
     2
 10
-21.0
 20
40.00274139892645
 30
0.0
 11
-42.0
 21
39.99999999963802
 31
0.0
  0
LINE
  5
197
  8
1
  6
LONG_DASHED
 62
     2
 10
-37.5
 20
21.0
 30
0.0
 11
-37.5
 21
0.0
 31
0.0
  0
LINE
  5
198
  8
1
  6
CONTINUOUS
 62
     2
 10
-42.0
 20
0.0
 30
0.0
 11
-37.5
 21
0.0
 31
0.0
  0
LINE
  5
199
  8
1
  6
CONTINUOUS
 62
     2
 10
-42.0
 20
21.0
 30
0.0
 11
-37.5
 21
21.0
 31
0.0
  0
LINE
  5
19A
  8
1
  6
LONG_DASHED
 62
     2
 10
-25.5
 20
21.0
 30
0.0
 11
-25.5
 21
0.0
 31
0.0
  0
LINE
  5
19B
  8
1
  6
CONTINUOUS
 62
     2
 10
-37.5
 20
21.0
 30
0.0
 11
-25.5
 21
21.0
 31
0.0
  0
LINE
  5
19C
  8
1
  6
CONTINUOUS
 62
     2
 10
-37.5
 20
0.0
 30
0.0
 11
-25.5
 21
0.0
 31
0.0
  0
ARC
  5
19D
  8
1
  6
CONTINUOUS
 62
     2
 10
-37.32991962664164
 20
33.01606617392645
 30
0.0
 40
7.523591860793247
 50
111.833085703342
 51
164.5128472850863
  0
ARC
  5
19E
  8
1
  6
CONTINUOUS
 62
     2
 10
-54.95135639666114
 20
34.04366082047272
 30
0.0
 40
5.999999998300541
 50
30.4039730006486
 51
55.09003415726665
  0
ARC
  5
19F
  8
1
  6
CONTINUOUS
 62
     2
 10
-41.48168579503181
 20
-8.997258601073554
 30
0.0
 40
49.00000000000078
 50
90.60607694370184
 51
113.7390683931108
  0
ARC
  5
1A0
  8
1
  6
CONTINUOUS
 62
     2
 10
-21.51831420496092
 20
-8.997258601073554
 30
0.0
 40
48.99999999999896
 50
66.26093160690186
 51
89.3939230563067
  0
ARC
  5
1A1
  8
1
  6
CONTINUOUS
 62
     2
 10
-23.59453895622937
 20
34.04366082047272
 30
0.0
 40
5.999999998297403
 50
30.4039730006667
 51
83.08373458229256
  0
ARC
  5
1A2
  8
1
  6
CONTINUOUS
 62
     2
 10
-8.048643603342498
 20
34.04366082047272
 30
0.0
 40
5.99999999830185
 50
124.9099658427235
 51
149.5960269993365
  0
ARC
  5
1A3
  8
1
  6
CONTINUOUS
 62
     2
 10
-60.0
 20
33.1106033608703
 30
0.0
 40
3.000000000001196
 50
113.7390683931126
 51
179.9999999999999
  0
ARC
  5
1A4
  8
1
  6
CONTINUOUS
 62
     2
 10
-3.0
 20
33.11060336087394
 30
0.0
 40
3.0
 50
0.0
 51
66.26093160695123
  0
ENDBLK
  5
1A6
  8
0
  0
BLOCK
  8
0
  2
_1__5
 70
     0
 10
0.0
 20
0.0
 30
0.0
  3
_1__5
  1

  0
LINE
  5
1A9
  8
1
  6
DOT_CENTER
 62
     2
 10
20.0
 20
22.57189822624969
 30
0.0
 11
20.0
 21
0.0
 31
0.0
  0
LINE
  5
1AA
  8
1
  6
CONTINUOUS
 62
     7
 10
36.0
 20
19.0
 30
0.0
 11
4.0
 21
19.0
 31
0.0
  0
LINE
  5
1AB
  8
1
  6
CONTINUOUS
 62
     7
 10
0.0
 20
15.0
 30
0.0
 11
0.0
 21
5.0
 31
0.0
  0
LINE
  5
1AC
  8
1
  6
CONTINUOUS
 62
     7
 10
0.0
 20
5.0
 30
0.0
 11
8.5
 21
5.0
 31
0.0
  0
LINE
  5
1AD
  8
1
  6
CONTINUOUS
 62
     7
 10
40.0
 20
5.0
 30
0.0
 11
40.0
 21
15.0
 31
0.0
  0
LINE
  5
1AE
  8
1
  6
CONTINUOUS
 62
     7
 10
8.5
 20
5.0
 30
0.0
 11
31.5
 21
5.0
 31
0.0
  0
LINE
  5
1AF
  8
1
  6
CONTINUOUS
 62
     7
 10
8.5
 20
5.0
 30
0.0
 11
31.5
 21
5.0
 31
0.0
  0
LINE
  5
1B0
  8
1
  6
CONTINUOUS
 62
     7
 10
31.5
 20
5.0
 30
0.0
 11
40.0
 21
5.0
 31
0.0
  0
LINE
  5
1B1
  8
1
  6
CONTINUOUS
 62
     7
 10
8.5
 20
5.0
 30
0.0
 11
8.5
 21
0.0
 31
0.0
  0
LINE
  5
1B2
  8
1
  6
CONTINUOUS
 62
     7
 10
8.5
 20
0.0
 30
0.0
 11
31.5
 21
0.0
 31
0.0
  0
LINE
  5
1B3
  8
1
  6
CONTINUOUS
 62
     7
 10
31.5
 20
0.0
 30
0.0
 11
31.5
 21
5.0
 31
0.0
  0
LINE
  5
1B4
  8
1
  6
CONTINUOUS
 62
     7
 10
32.0
 20
15.0
 30
0.0
 11
32.0
 21
5.0
 31
0.0
  0
LINE
  5
1B5
  8
1
  6
CONTINUOUS
 62
     7
 10
31.0
 20
5.0
 30
0.0
 11
31.0
 21
15.0
 31
0.0
  0
LINE
  5
1B6
  8
1
  6
CONTINUOUS
 62
     7
 10
22.0
 20
15.0
 30
0.0
 11
22.0
 21
5.0
 31
0.0
  0
LINE
  5
1B7
  8
1
  6
CONTINUOUS
 62
     7
 10
18.0
 20
5.0
 30
0.0
 11
18.0
 21
15.0
 31
0.0
  0
LINE
  5
1B8
  8
1
  6
CONTINUOUS
 62
     7
 10
9.0
 20
15.0
 30
0.0
 11
9.0
 21
5.0
 31
0.0
  0
LINE
  5
1B9
  8
1
  6
CONTINUOUS
 62
     7
 10
8.0
 20
5.0
 30
0.0
 11
8.0
 21
15.0
 31
0.0
  0
LINE
  5
1BA
  8
1
  6
CONTINUOUS
 62
     7
 10
18.0
 20
15.0
 30
0.0
 11
22.0
 21
15.0
 31
0.0
  0
LINE
  5
1BB
  8
1
  6
CONTINUOUS
 62
     7
 10
31.0
 20
15.0
 30
0.0
 11
32.0
 21
15.0
 31
0.0
  0
LINE
  5
1BC
  8
1
  6
CONTINUOUS
 62
     7
 10
9.0
 20
15.0
 30
0.0
 11
8.0
 21
15.0
 31
0.0
  0
ARC
  5
1BD
  8
1
  6
CONTINUOUS
 62
     7
 10
36.0
 20
15.0
 30
0.0
 40
4.0
 50
0.0000000000000254
 51
90.0
  0
ARC
  5
1BE
  8
1
  6
CONTINUOUS
 62
     7
 10
4.0
 20
15.0
 30
0.0
 40
4.0
 50
90.0
 51
180.0000000000001
  0
ARC
  5
1BF
  8
1
  6
CONTINUOUS
 62
     7
 10
36.0
 20
15.0
 30
0.0
 40
4.0
 50
90.0
 51
180.0000000000002
  0
ARC
  5
1C0
  8
1
  6
CONTINUOUS
 62
     7
 10
27.0
 20
15.0
 30
0.0
 40
4.0
 50
0.0000000000000254
 51
90.0
  0
ARC
  5
1C1
  8
1
  6
CONTINUOUS
 62
     7
 10
26.0
 20
15.0
 30
0.0
 40
4.0
 50
90.0
 51
180.0000000000002
  0
ARC
  5
1C2
  8
1
  6
CONTINUOUS
 62
     7
 10
14.0
 20
15.0
 30
0.0
 40
4.0
 50
0.0
 51
90.0
  0
ARC
  5
1C3
  8
1
  6
CONTINUOUS
 62
     7
 10
13.0
 20
15.0
 30
0.0
 40
4.0
 50
90.0
 51
180.0000000000001
  0
ARC
  5
1C4
  8
1
  6
CONTINUOUS
 62
     7
 10
4.0
 20
15.0
 30
0.0
 40
4.0
 50
0.0
 51
90.0
  0
ENDBLK
  5
1C6
  8
0
  0
BLOCK
  8
0
  2
_1__6
 70
     0
 10
0.0
 20
0.0
 30
0.0
  3
_1__6
  1

  0
LINE
  5
1C9
  8
1
  6
CONTINUOUS
 62
     7
 10
9.0
 20
15.0
 30
0.0
 11
8.0
 21
15.0
 31
0.0
  0
LINE
  5
1CA
  8
1
  6
CONTINUOUS
 62
     7
 10
31.0
 20
15.0
 30
0.0
 11
32.0
 21
15.0
 31
0.0
  0
LINE
  5
1CB
  8
1
  6
CONTINUOUS
 62
     7
 10
18.0
 20
15.0
 30
0.0
 11
22.0
 21
15.0
 31
0.0
  0
LINE
  5
1CC
  8
1
  6
CONTINUOUS
 62
     7
 10
8.0
 20
5.0
 30
0.0
 11
8.0
 21
15.0
 31
0.0
  0
LINE
  5
1CD
  8
1
  6
CONTINUOUS
 62
     7
 10
9.0
 20
15.0
 30
0.0
 11
9.0
 21
5.0
 31
0.0
  0
LINE
  5
1CE
  8
1
  6
CONTINUOUS
 62
     7
 10
18.0
 20
5.0
 30
0.0
 11
18.0
 21
15.0
 31
0.0
  0
LINE
  5
1CF
  8
1
  6
CONTINUOUS
 62
     7
 10
22.0
 20
15.0
 30
0.0
 11
22.0
 21
5.0
 31
0.0
  0
LINE
  5
1D0
  8
1
  6
CONTINUOUS
 62
     7
 10
31.0
 20
5.0
 30
0.0
 11
31.0
 21
15.0
 31
0.0
  0
LINE
  5
1D1
  8
1
  6
CONTINUOUS
 62
     7
 10
32.0
 20
15.0
 30
0.0
 11
32.0
 21
5.0
 31
0.0
  0
LINE
  5
1D2
  8
1
  6
CONTINUOUS
 62
     7
 10
31.5
 20
0.0
 30
0.0
 11
31.5
 21
5.0
 31
0.0
  0
LINE
  5
1D3
  8
1
  6
CONTINUOUS
 62
     7
 10
8.5
 20
0.0
 30
0.0
 11
31.5
 21
0.0
 31
0.0
  0
LINE
  5
1D4
  8
1
  6
CONTINUOUS
 62
     7
 10
8.5
 20
5.0
 30
0.0
 11
8.5
 21
0.0
 31
0.0
  0
LINE
  5
1D5
  8
1
  6
CONTINUOUS
 62
     7
 10
31.5
 20
5.0
 30
0.0
 11
40.0
 21
5.0
 31
0.0
  0
LINE
  5
1D6
  8
1
  6
CONTINUOUS
 62
     7
 10
8.5
 20
5.0
 30
0.0
 11
31.5
 21
5.0
 31
0.0
  0
LINE
  5
1D7
  8
1
  6
CONTINUOUS
 62
     7
 10
8.5
 20
5.0
 30
0.0
 11
31.5
 21
5.0
 31
0.0
  0
LINE
  5
1D8
  8
1
  6
CONTINUOUS
 62
     7
 10
40.0
 20
5.0
 30
0.0
 11
40.0
 21
15.0
 31
0.0
  0
LINE
  5
1D9
  8
1
  6
CONTINUOUS
 62
     7
 10
0.0
 20
5.0
 30
0.0
 11
8.5
 21
5.0
 31
0.0
  0
LINE
  5
1DA
  8
1
  6
CONTINUOUS
 62
     7
 10
0.0
 20
15.0
 30
0.0
 11
0.0
 21
5.0
 31
0.0
  0
LINE
  5
1DB
  8
1
  6
CONTINUOUS
 62
     7
 10
36.0
 20
19.0
 30
0.0
 11
4.0
 21
19.0
 31
0.0
  0
LINE
  5
1DC
  8
1
  6
DOT_CENTER
 62
     2
 10
20.0
 20
22.57189822624969
 30
0.0
 11
20.0
 21
0.0
 31
0.0
  0
ARC
  5
1DD
  8
1
  6
CONTINUOUS
 62
     7
 10
4.0
 20
15.0
 30
0.0
 40
4.0
 50
0.0
 51
90.0
  0
ARC
  5
1DE
  8
1
  6
CONTINUOUS
 62
     7
 10
13.0
 20
15.0
 30
0.0
 40
4.0
 50
90.0
 51
180.0000000000001
  0
ARC
  5
1DF
  8
1
  6
CONTINUOUS
 62
     7
 10
14.0
 20
15.0
 30
0.0
 40
4.0
 50
0.0
 51
90.0
  0
ARC
  5
1E0
  8
1
  6
CONTINUOUS
 62
     7
 10
26.0
 20
15.0
 30
0.0
 40
4.0
 50
90.0
 51
180.0000000000002
  0
ARC
  5
1E1
  8
1
  6
CONTINUOUS
 62
     7
 10
27.0
 20
15.0
 30
0.0
 40
4.0
 50
0.0000000000000254
 51
90.0
  0
ARC
  5
1E2
  8
1
  6
CONTINUOUS
 62
     7
 10
36.0
 20
15.0
 30
0.0
 40
4.0
 50
90.0
 51
180.0000000000002
  0
ARC
  5
1E3
  8
1
  6
CONTINUOUS
 62
     7
 10
4.0
 20
15.0
 30
0.0
 40
4.0
 50
90.0
 51
180.0000000000001
  0
ARC
  5
1E4
  8
1
  6
CONTINUOUS
 62
     7
 10
36.0
 20
15.0
 30
0.0
 40
4.0
 50
0.0000000000000254
 51
90.0
  0
ENDBLK
  5
1E6
  8
0
  0
BLOCK
  8
0
  2
_11__7
 70
     0
 10
0.0
 20
0.0
 30
0.0
  3
_11__7
  1

  0
LINE
  5
1E9
  8
1
  6
CONTINUOUS
 62
     7
 10
21.0
 20
93.0
 30
0.0
 11
41.0
 21
93.0
 31
0.0
  0
LINE
  5
1EA
  8
1
  6
CONTINUOUS
 62
     7
 10
91.0
 20
93.0
 30
0.0
 11
91.0
 21
91.0
 31
0.0
  0
LINE
  5
1EB
  8
1
  6
CONTINUOUS
 62
     7
 10
91.0
 20
91.0
 30
0.0
 11
71.24129622599867
 21
91.0
 31
0.0
  0
LINE
  5
1EC
  8
1
  6
CONTINUOUS
 62
     7
 10
21.0
 20
91.0
 30
0.0
 11
21.0
 21
93.0
 31
0.0
  0
LINE
  5
1ED
  8
1
  6
DOT_CENTER
 62
     2
 10
56.0
 20
106.0942886904304
 30
0.0
 11
56.0
 21
48.0942886904304
 31
0.0
  0
LINE
  5
1EE
  8
1
  6
DOT_CENTER
 62
     2
 10
35.0
 20
75.86628385782024
 30
0.0
 11
35.0
 21
17.86628385782024
 31
0.0
  0
LINE
  5
1EF
  8
1
  6
CONTINUOUS
 62
     7
 10
73.0
 20
88.89247932886065
 30
0.0
 11
71.0
 21
88.89247932886065
 31
0.0
  0
LINE
  5
1F0
  8
1
  6
CONTINUOUS
 62
     7
 10
39.0
 20
88.89247932886065
 30
0.0
 11
39.0
 21
78.11660695809951
 31
0.0
  0
LINE
  5
1F1
  8
1
  6
CONTINUOUS
 62
     7
 10
73.0
 20
78.11660695809951
 30
0.0
 11
73.0
 21
88.89247932886065
 31
0.0
  0
LINE
  5
1F2
  8
1
  6
CONTINUOUS
 62
     7
 10
36.40680766999867
 20
46.30630260661019
 30
0.0
 11
30.05025253168787
 21
39.94974746830667
 31
0.0
  0
LINE
  5
1F3
  8
1
  6
CONTINUOUS
 62
     7
 10
45.19360423439866
 20
67.51950604220656
 30
0.0
 11
45.19360423439866
 21
73.0
 31
0.0
  0
LINE
  5
1F4
  8
1
  6
CONTINUOUS
 62
     7
 10
36.9782055630385
 20
28.28533673589118
 30
0.0
 11
44.67162807597924
 21
30.55189435989269
 31
0.0
  0
LINE
  5
1F5
  8
1
  6
DOT_CENTER
 62
     2
 10
65.99567207619839
 20
35.0
 30
0.0
 11
5.864694720999978
 21
35.0
 31
0.0
  0
LINE
  5
1F6
  8
1
  6
CONTINUOUS
 62
     7
 10
71.0
 20
93.0
 30
0.0
 11
91.0
 21
93.0
 31
0.0
  0
LINE
  5
1F7
  8
1
  6
CONTINUOUS
 62
     7
 10
40.75870377399769
 20
91.0
 30
0.0
 11
21.0
 21
91.0
 31
0.0
  0
LINE
  5
1F8
  8
1
  6
CONTINUOUS
 62
     7
 10
41.0
 20
88.89247932886065
 30
0.0
 11
39.0
 21
88.89247932886065
 31
0.0
  0
LINE
  5
1F9
  8
1
  6
CONTINUOUS
 62
     7
 10
66.19360423439866
 20
73.0
 30
0.0
 11
66.19360423439866
 21
59.32902263464712
 31
0.0
  0
ARC
  5
1FA
  8
1
  6
CONTINUOUS
 62
     7
 10
35.0
 20
35.0
 30
0.0
 40
7.00000000000504
 50
135.0000000000315
 51
286.4154897745162
  0
ARC
  5
1FB
  8
1
  6
CONTINUOUS
 62
     7
 10
35.0
 20
35.0
 30
0.0
 40
35.0
 50
0.0
 51
29.77845685797704
  0
ARC
  5
1FC
  8
1
  6
CONTINUOUS
 62
     7
 10
35.0
 20
35.0
 30
0.0
 40
34.99999999999454
 50
335.8925745285087
 51
0.0
  0
ARC
  5
1FD
  8
1
  6
CONTINUOUS
 62
     2
 10
35.0
 20
35.0
 30
0.0
 40
13.00000000000234
 50
327.7957724960116
 51
344.6357159921785
  0
ARC
  5
1FE
  8
1
  6
CONTINUOUS
 62
     7
 10
35.0
 20
35.0
 30
0.0
 40
34.99999999999866
 50
73.06744291213516
 51
256.920628023773
  0
ARC
  5
1FF
  8
1
  6
CONTINUOUS
 62
     2
 10
35.0
 20
35.0
 30
0.0
 40
27.00000000000066
 50
69.80284265689265
 51
279.2262230586891
  0
ARC
  5
200
  8
1
  6
CONTINUOUS
 62
     2
 10
35.0
 20
35.0
 30
0.0
 40
25.9999999999975
 50
69.59484222575962
 51
280.7302398729506
  0
ARC
  5
201
  8
1
  6
CONTINUOUS
 62
     2
 10
35.0
 20
35.0
 30
0.0
 40
13.00000000000134
 50
77.57897039279996
 51
327.7957724960116
  0
ARC
  5
202
  8
1
  6
CONTINUOUS
 62
     7
 10
15.19360423439866
 20
67.51950604220656
 30
0.0
 40
30.00000000000249
 50
315.0000000000049
 51
359.9999999999999
  0
ARC
  5
203
  8
1
  6
CONTINUOUS
 62
     7
 10
36.19360423439866
 20
59.32902263464712
 30
0.0
 40
30.00000000000187
 50
329.3405285289484
 51
359.9999999999993
  0
ARC
  5
204
  8
1
  6
CONTINUOUS
 62
     7
 10
71.0
 20
78.11660695809951
 30
0.0
 40
2.0
 50
270.0
 51
0.0
  0
ARC
  5
205
  8
1
  6
CONTINUOUS
 62
     7
 10
41.0
 20
78.11660695809951
 30
0.0
 40
2.0
 50
180.0
 51
270.0
  0
ARC
  5
206
  8
1
  6
CONTINUOUS
 62
     7
 10
36.19360423439866
 20
59.32902263464712
 30
0.0
 40
30.00000000000133
 50
286.4154897744996
 51
297.4008652593965
  0
ENDBLK
  5
208
  8
0
  0
BLOCK
  8
0
  2
_9__8
 70
     0
 10
0.0
 20
0.0
 30
0.0
  3
_9__8
  1

  0
LINE
  5
20B
  8
1
  6
LONG_DASHED
 62
     2
 10
25.5
 20
0.0
 30
0.0
 11
25.5
 21
21.0
 31
0.0
  0
LINE
  5
20C
  8
1
  6
CONTINUOUS
 62
     2
 10
25.5
 20
0.0
 30
0.0
 11
37.5
 21
0.0
 31
0.0
  0
LINE
  5
20D
  8
1
  6
CONTINUOUS
 62
     2
 10
25.5
 20
21.0
 30
0.0
 11
37.5
 21
21.0
 31
0.0
  0
LINE
  5
20E
  8
1
  6
CONTINUOUS
 62
     2
 10
37.5
 20
21.0
 30
0.0
 11
42.0
 21
21.0
 31
0.0
  0
LINE
  5
20F
  8
1
  6
LONG_DASHED
 62
     2
 10
37.5
 20
0.0
 30
0.0
 11
37.5
 21
21.0
 31
0.0
  0
LINE
  5
210
  8
1
  6
CONTINUOUS
 62
     2
 10
37.5
 20
0.0
 30
0.0
 11
42.0
 21
0.0
 31
0.0
  0
LINE
  5
211
  8
1
  6
CONTINUOUS
 62
     2
 10
42.0
 20
39.99999999963802
 30
0.0
 11
21.0
 21
40.00274139892645
 31
0.0
  0
LINE
  5
212
  8
1
  6
CONTINUOUS
 62
     2
 10
21.0
 20
0.0
 30
0.0
 11
25.5
 21
0.0
 31
0.0
  0
LINE
  5
213
  8
1
  6
CONTINUOUS
 62
     2
 10
42.0
 20
21.0
 30
0.0
 11
63.0
 21
21.0
 31
0.0
  0
LINE
  5
214
  8
1
  6
CONTINUOUS
 62
     2
 10
42.0
 20
21.0
 30
0.0
 11
42.0
 21
0.0
 31
0.0
  0
LINE
  5
215
  8
1
  6
CONTINUOUS
 62
     2
 10
21.0
 20
21.0
 30
0.0
 11
25.5
 21
21.0
 31
0.0
  0
LINE
  5
216
  8
1
  6
CONTINUOUS
 62
     2
 10
21.0
 20
0.0
 30
0.0
 11
21.0
 21
21.0
 31
0.0
  0
LINE
  5
217
  8
1
  6
CONTINUOUS
 62
     2
 10
49.77648493150991
 20
21.0
 30
0.0
 11
49.77648493150991
 21
37.08022224727938
 31
0.0
  0
LINE
  5
218
  8
1
  6
CONTINUOUS
 62
     2
 10
44.58033250891822
 20
21.0
 30
0.0
 11
44.58033250891822
 21
35.02503295418683
 31
0.0
  0
LINE
  5
219
  8
1
  6
CONTINUOUS
 62
     2
 10
18.41966749107814
 20
37.08022224727938
 30
0.0
 11
18.41966749107814
 21
21.0
 31
0.0
  0
LINE
  5
21A
  8
1
  6
CONTINUOUS
 62
     2
 10
13.22351506849009
 20
37.08022224727938
 30
0.0
 11
13.22351506849009
 21
21.0
 31
0.0
  0
LINE
  5
21B
  8
1
  6
CONTINUOUS
 62
     2
 10
0.0
 20
21.0
 30
0.0
 11
21.0
 21
21.0
 31
0.0
  0
LINE
  5
21C
  8
1
  6
CONTINUOUS
 62
     2
 10
0.0
 20
33.11060336087394
 30
0.0
 11
0.0
 21
21.0
 31
0.0
  0
LINE
  5
21D
  8
1
  6
CONTINUOUS
 62
     2
 10
63.0
 20
21.0
 30
0.0
 11
63.0
 21
33.1106033608703
 31
0.0
  0
LINE
  5
21E
  8
1
  6
CONTINUOUS
 62
     2
 10
0.0
 20
21.0
 30
0.0
 11
0.0
 21
21.0
 31
0.0
  0
ARC
  5
21F
  8
1
  6
CONTINUOUS
 62
     2
 10
8.04864360333886
 20
34.04366082047272
 30
0.0
 40
5.999999998300541
 50
30.40397300064857
 51
55.09003415726656
  0
ARC
  5
220
  8
1
  6
CONTINUOUS
 62
     2
 10
23.59453895622937
 20
34.04366082047272
 30
0.0
 40
5.999999998303172
 50
96.91626541773591
 51
149.596026999354
  0
ARC
  5
221
  8
1
  6
CONTINUOUS
 62
     2
 10
21.51831420495728
 20
-8.997258601073554
 30
0.0
 40
49.00000000000066
 50
90.60607694368899
 51
113.7390683930973
  0
ARC
  5
222
  8
1
  6
CONTINUOUS
 62
     2
 10
41.48168579502817
 20
-8.997258601073554
 30
0.0
 40
49.00000000000168
 50
66.26093160688933
 51
89.39392305629399
  0
ARC
  5
223
  8
1
  6
CONTINUOUS
 62
     2
 10
54.9513563966575
 20
34.04366082047272
 30
0.0
 40
5.99999999830185
 50
124.9099658427228
 51
149.5960269993358
  0
ARC
  5
224
  8
1
  6
CONTINUOUS
 62
     2
 10
37.329919626638
 20
33.01606617392645
 30
0.0
 40
7.523591860788613
 50
15.48715271490783
 51
68.1669142966476
  0
ARC
  5
225
  8
1
  6
CONTINUOUS
 62
     2
 10
3.0
 20
33.11060336087394
 30
0.0
 40
2.999999999999531
 50
113.7390683931264
 51
180.0
  0
ARC
  5
226
  8
1
  6
CONTINUOUS
 62
     2
 10
60.0
 20
33.1106033608703
 30
0.0
 40
3.0
 50
0.0000000000001357
 51
66.26093160695132
  0
ENDBLK
  5
228
  8
0
  0
BLOCK
  8
0
  2
_9__9
 70
     0
 10
0.0
 20
0.0
 30
0.0
  3
_9__9
  1

  0
LINE
  5
22B
  8
1
  6
CONTINUOUS
 62
     2
 10
0.0
 20
21.0
 30
0.0
 11
0.0
 21
21.0
 31
0.0
  0
LINE
  5
22C
  8
1
  6
CONTINUOUS
 62
     2
 10
63.0
 20
21.0
 30
0.0
 11
63.0
 21
33.1106033608703
 31
0.0
  0
LINE
  5
22D
  8
1
  6
CONTINUOUS
 62
     2
 10
0.0
 20
33.11060336087394
 30
0.0
 11
0.0
 21
21.0
 31
0.0
  0
LINE
  5
22E
  8
1
  6
CONTINUOUS
 62
     2
 10
0.0
 20
21.0
 30
0.0
 11
21.0
 21
21.0
 31
0.0
  0
LINE
  5
22F
  8
1
  6
CONTINUOUS
 62
     2
 10
13.22351506849009
 20
37.08022224727938
 30
0.0
 11
13.22351506849009
 21
21.0
 31
0.0
  0
LINE
  5
230
  8
1
  6
CONTINUOUS
 62
     2
 10
18.41966749107814
 20
37.08022224727938
 30
0.0
 11
18.41966749107814
 21
21.0
 31
0.0
  0
LINE
  5
231
  8
1
  6
CONTINUOUS
 62
     2
 10
44.58033250891822
 20
21.0
 30
0.0
 11
44.58033250891822
 21
35.02503295418683
 31
0.0
  0
LINE
  5
232
  8
1
  6
CONTINUOUS
 62
     2
 10
49.77648493150991
 20
21.0
 30
0.0
 11
49.77648493150991
 21
37.08022224727938
 31
0.0
  0
LINE
  5
233
  8
1
  6
CONTINUOUS
 62
     2
 10
21.0
 20
0.0
 30
0.0
 11
21.0
 21
21.0
 31
0.0
  0
LINE
  5
234
  8
1
  6
CONTINUOUS
 62
     2
 10
21.0
 20
21.0
 30
0.0
 11
25.5
 21
21.0
 31
0.0
  0
LINE
  5
235
  8
1
  6
CONTINUOUS
 62
     2
 10
42.0
 20
21.0
 30
0.0
 11
42.0
 21
0.0
 31
0.0
  0
LINE
  5
236
  8
1
  6
CONTINUOUS
 62
     2
 10
42.0
 20
21.0
 30
0.0
 11
63.0
 21
21.0
 31
0.0
  0
LINE
  5
237
  8
1
  6
CONTINUOUS
 62
     2
 10
21.0
 20
0.0
 30
0.0
 11
25.5
 21
0.0
 31
0.0
  0
LINE
  5
238
  8
1
  6
CONTINUOUS
 62
     2
 10
42.0
 20
39.99999999963802
 30
0.0
 11
21.0
 21
40.00274139892645
 31
0.0
  0
LINE
  5
239
  8
1
  6
LONG_DASHED
 62
     2
 10
37.5
 20
0.0
 30
0.0
 11
37.5
 21
12.0
 31
0.0
  0
LINE
  5
23A
  8
1
  6
CONTINUOUS
 62
     2
 10
37.5
 20
0.0
 30
0.0
 11
42.0
 21
0.0
 31
0.0
  0
LINE
  5
23B
  8
1
  6
LONG_DASHED
 62
     2
 10
37.5
 20
12.0
 30
0.0
 11
37.5
 21
21.0
 31
0.0
  0
LINE
  5
23C
  8
1
  6
CONTINUOUS
 62
     2
 10
37.5
 20
21.0
 30
0.0
 11
42.0
 21
21.0
 31
0.0
  0
LINE
  5
23D
  8
1
  6
LONG_DASHED
 62
     2
 10
25.5
 20
0.0
 30
0.0
 11
25.5
 21
12.0
 31
0.0
  0
LINE
  5
23E
  8
1
  6
CONTINUOUS
 62
     2
 10
25.5
 20
21.0
 30
0.0
 11
37.5
 21
21.0
 31
0.0
  0
LINE
  5
23F
  8
1
  6
CONTINUOUS
 62
     2
 10
25.5
 20
0.0
 30
0.0
 11
37.5
 21
0.0
 31
0.0
  0
LINE
  5
240
  8
1
  6
LONG_DASHED
 62
     2
 10
37.5
 20
12.0
 30
0.0
 11
25.5
 21
12.0
 31
0.0
  0
LINE
  5
241
  8
1
  6
LONG_DASHED
 62
     2
 10
25.5
 20
12.0
 30
0.0
 11
25.5
 21
21.0
 31
0.0
  0
LINE
  5
242
  8
1
  6
DOT_CENTER
 62
     2
 10
27.03621396319795
 20
7.0
 30
0.0
 11
35.8272454479993
 21
7.0
 31
0.0
  0
LINE
  5
243
  8
1
  6
DOT_CENTER
 62
     2
 10
31.5
 20
14.9907722152202
 30
0.0
 11
31.5
 21
0.8857590121206158
 31
0.0
  0
ARC
  5
244
  8
1
  6
CONTINUOUS
 62
     2
 10
37.329919626638
 20
33.01606617392645
 30
0.0
 40
7.523591860788613
 50
15.48715271490783
 51
68.1669142966476
  0
ARC
  5
245
  8
1
  6
CONTINUOUS
 62
     2
 10
54.9513563966575
 20
34.04366082047272
 30
0.0
 40
5.99999999830185
 50
124.9099658427228
 51
149.5960269993358
  0
ARC
  5
246
  8
1
  6
CONTINUOUS
 62
     2
 10
41.48168579502817
 20
-8.997258601073554
 30
0.0
 40
49.00000000000168
 50
66.26093160688933
 51
89.39392305629399
  0
ARC
  5
247
  8
1
  6
CONTINUOUS
 62
     2
 10
21.51831420495728
 20
-8.997258601073554
 30
0.0
 40
49.00000000000066
 50
90.60607694368899
 51
113.7390683930973
  0
ARC
  5
248
  8
1
  6
CONTINUOUS
 62
     2
 10
23.59453895622937
 20
34.04366082047272
 30
0.0
 40
5.999999998303172
 50
96.91626541773591
 51
149.596026999354
  0
ARC
  5
249
  8
1
  6
CONTINUOUS
 62
     2
 10
8.04864360333886
 20
34.04366082047272
 30
0.0
 40
5.999999998300541
 50
30.40397300064857
 51
55.09003415726656
  0
CIRCLE
  5
24A
  8
1
  6
CONTINUOUS
 62
     2
 10
31.5
 20
7.0
 30
0.0
 40
3.0
  0
CIRCLE
  5
24B
  8
1
  6
CONTINUOUS
 62
     2
 10
31.5
 20
7.0
 30
0.0
 40
2.0
  0
ARC
  5
24C
  8
1
  6
CONTINUOUS
 62
     2
 10
60.0
 20
33.1106033608703
 30
0.0
 40
3.0
 50
0.0000000000001357
 51
66.26093160695132
  0
ARC
  5
24D
  8
1
  6
CONTINUOUS
 62
     2
 10
3.0
 20
33.11060336087394
 30
0.0
 40
2.999999999999531
 50
113.7390683931264
 51
180.0
  0
ENDBLK
  5
24F
  8
0
  0
BLOCK
  8
0
  2
_2__10
 70
     0
 10
0.0
 20
0.0
 30
0.0
  3
_2__10
  1

  0
LINE
  5
252
  8
1
  6
CONTINUOUS
 62
     7
 10
31.00000000000728
 20
81.29091281000183
 30
0.0
 11
31.00000000000728
 21
43.79392658247161
 31
0.0
  0
LINE
  5
253
  8
1
  6
CONTINUOUS
 62
     2
 10
29.5
 20
81.29091281000183
 30
0.0
 11
29.5
 21
43.73945974030175
 31
0.0
  0
LINE
  5
254
  8
1
  6
CONTINUOUS
 62
     2
 10
20.5
 20
81.29091281000183
 30
0.0
 11
20.5
 21
43.79392658247161
 31
0.0
  0
LINE
  5
255
  8
1
  6
CONTINUOUS
 62
     7
 10
19.0
 20
81.29091281000183
 30
0.0
 11
19.0
 21
43.79392658247161
 31
0.0
  0
LINE
  5
256
  8
1
  6
CONTINUOUS
 62
     2
 10
19.0
 20
164.2919174008239
 30
0.0
 11
25.00000000000728
 21
164.2919174008239
 31
0.0
  0
LINE
  5
257
  8
1
  6
CONTINUOUS
 62
     2
 10
31.0
 20
164.2919174008239
 30
0.0
 11
33.5
 21
164.2919174008239
 31
0.0
  0
LINE
  5
258
  8
1
  6
CONTINUOUS
 62
     2
 10
31.0
 20
164.2919174008239
 30
0.0
 11
31.00000000000728
 21
164.2919174008239
 31
0.0
  0
LINE
  5
259
  8
1
  6
CONTINUOUS
 62
     2
 10
25.00000000000728
 20
162.2919174008239
 30
0.0
 11
25.00000000000728
 21
162.2919174008221
 31
0.0
  0
LINE
  5
25A
  8
1
  6
CONTINUOUS
 62
     2
 10
32.00000000000728
 20
162.2919174008239
 30
0.0
 11
32.00000000000728
 21
157.9810976726094
 31
0.0
  0
LINE
  5
25B
  8
1
  6
CONTINUOUS
 62
     2
 10
35.00000000000728
 20
162.2919174008239
 30
0.0
 11
35.00000000000728
 21
157.9810976726094
 31
0.0
  0
LINE
  5
25C
  8
1
  6
CONTINUOUS
 62
     2
 10
35.00000000000728
 20
162.2919174008221
 30
0.0
 11
35.00000000000728
 21
162.2919174008239
 31
0.0
  0
LINE
  5
25D
  8
1
  6
CONTINUOUS
 62
     2
 10
32.00000000000728
 20
162.2919174008221
 30
0.0
 11
32.00000000000728
 21
162.2919174008239
 31
0.0
  0
LINE
  5
25E
  8
1
  6
CONTINUOUS
 62
     2
 10
15.00000000000728
 20
157.9810976726094
 30
0.0
 11
15.00000000000728
 21
162.2919174008221
 31
0.0
  0
LINE
  5
25F
  8
1
  6
CONTINUOUS
 62
     2
 10
18.00000000000728
 20
157.9810976726094
 30
0.0
 11
18.00000000000728
 21
162.2919174008221
 31
0.0
  0
LINE
  5
260
  8
1
  6
CONTINUOUS
 62
     2
 10
25.00000000000728
 20
157.9810976726094
 30
0.0
 11
25.0
 21
157.9810976726094
 31
0.0
  0
LINE
  5
261
  8
1
  6
CONTINUOUS
 62
     2
 10
25.00000000000728
 20
157.2899082191761
 30
0.0
 11
16.50000000000728
 21
157.2899082191761
 31
0.0
  0
LINE
  5
262
  8
1
  6
CONTINUOUS
 62
     2
 10
33.5
 20
157.2899082191761
 30
0.0
 11
31.00000000000728
 21
157.2899082191761
 31
0.0
  0
LINE
  5
263
  8
1
  6
CONTINUOUS
 62
     2
 10
25.0
 20
157.9810976726094
 30
0.0
 11
25.00000000000728
 21
162.2919174008239
 31
0.0
  0
LINE
  5
264
  8
1
  6
CONTINUOUS
 62
     2
 10
31.00000000000728
 20
157.2899082191761
 30
0.0
 11
25.0
 21
157.2899082191761
 31
0.0
  0
LINE
  5
265
  8
1
  6
CONTINUOUS
 62
     2
 10
35.00000000000728
 20
163.6007279473906
 30
0.0
 11
35.00000000000728
 21
162.2919174008239
 31
0.0
  0
LINE
  5
266
  8
1
  6
CONTINUOUS
 62
     2
 10
32.00000000000728
 20
163.6007279473906
 30
0.0
 11
32.00000000000728
 21
162.2919174008239
 31
0.0
  0
LINE
  5
267
  8
1
  6
CONTINUOUS
 62
     2
 10
15.00000000000728
 20
162.2919174008239
 30
0.0
 11
15.00000000000728
 21
163.6007279473906
 31
0.0
  0
LINE
  5
268
  8
1
  6
CONTINUOUS
 62
     2
 10
18.00000000000728
 20
162.2919174008239
 30
0.0
 11
18.00000000000728
 21
163.6007279473906
 31
0.0
  0
LINE
  5
269
  8
1
  6
CONTINUOUS
 62
     2
 10
25.0
 20
163.6007279473906
 30
0.0
 11
25.00000000000728
 21
163.6007279473906
 31
0.0
  0
LINE
  5
26A
  8
1
  6
CONTINUOUS
 62
     2
 10
16.50000000000728
 20
164.2919174008239
 30
0.0
 11
19.0
 21
164.2919174008239
 31
0.0
  0
LINE
  5
26B
  8
1
  6
CONTINUOUS
 62
     2
 10
31.00000000000728
 20
164.2919174008239
 30
0.0
 11
31.0
 21
164.2919174008239
 31
0.0
  0
LINE
  5
26C
  8
1
  6
CONTINUOUS
 62
     2
 10
25.00000000000728
 20
162.2919174008239
 30
0.0
 11
25.0
 21
163.6007279473906
 31
0.0
  0
LINE
  5
26D
  8
1
  6
CONTINUOUS
 62
     2
 10
25.0
 20
164.2919174008239
 30
0.0
 11
31.0
 21
164.2919174008239
 31
0.0
  0
LINE
  5
26E
  8
1
  6
CONTINUOUS
 62
     2
 10
16.50000000000728
 20
157.2899082191761
 30
0.0
 11
25.00000000000728
 21
157.2899082191761
 31
0.0
  0
LINE
  5
26F
  8
1
  6
CONTINUOUS
 62
     2
 10
31.0
 20
157.2899082191761
 30
0.0
 11
33.5
 21
157.2899082191761
 31
0.0
  0
LINE
  5
270
  8
1
  6
CONTINUOUS
 62
     2
 10
31.0
 20
157.2899082191761
 30
0.0
 11
31.00000000000728
 21
157.2899082191761
 31
0.0
  0
LINE
  5
271
  8
1
  6
CONTINUOUS
 62
     2
 10
25.0
 20
156.5987187657429
 30
0.0
 11
25.00000000000728
 21
156.5987187657429
 31
0.0
  0
LINE
  5
272
  8
1
  6
CONTINUOUS
 62
     2
 10
31.00000000000728
 20
157.2899082191761
 30
0.0
 11
31.0
 21
157.2899082191761
 31
0.0
  0
LINE
  5
273
  8
1
  6
CONTINUOUS
 62
     2
 10
25.0
 20
157.2899082191761
 30
0.0
 11
31.0
 21
157.2899082191761
 31
0.0
  0
LINE
  5
274
  8
1
  6
CONTINUOUS
 62
     2
 10
19.0
 20
43.79392658247161
 30
0.0
 11
25.00000000000728
 21
43.79392658247161
 31
0.0
  0
LINE
  5
275
  8
1
  6
CONTINUOUS
 62
     2
 10
31.0
 20
43.79392658247161
 30
0.0
 11
33.5
 21
43.79392658247161
 31
0.0
  0
LINE
  5
276
  8
1
  6
CONTINUOUS
 62
     2
 10
31.0
 20
43.79392658247161
 30
0.0
 11
31.00000000000728
 21
43.79392658247161
 31
0.0
  0
LINE
  5
277
  8
1
  6
CONTINUOUS
 62
     2
 10
25.00000000000728
 20
41.79392658247161
 30
0.0
 11
25.00000000000728
 21
41.79392658246979
 31
0.0
  0
LINE
  5
278
  8
1
  6
CONTINUOUS
 62
     2
 10
32.00000000000728
 20
41.79392658247161
 30
0.0
 11
32.00000000000728
 21
37.48310685425713
 31
0.0
  0
LINE
  5
279
  8
1
  6
CONTINUOUS
 62
     2
 10
35.00000000000728
 20
41.79392658247161
 30
0.0
 11
35.00000000000728
 21
37.48310685425713
 31
0.0
  0
LINE
  5
27A
  8
1
  6
CONTINUOUS
 62
     2
 10
35.00000000000728
 20
41.79392658246979
 30
0.0
 11
35.00000000000728
 21
41.79392658247161
 31
0.0
  0
LINE
  5
27B
  8
1
  6
CONTINUOUS
 62
     2
 10
32.00000000000728
 20
41.79392658246979
 30
0.0
 11
32.00000000000728
 21
41.79392658247161
 31
0.0
  0
LINE
  5
27C
  8
1
  6
CONTINUOUS
 62
     2
 10
15.00000000000728
 20
37.48310685425713
 30
0.0
 11
15.00000000000728
 21
41.79392658246979
 31
0.0
  0
LINE
  5
27D
  8
1
  6
CONTINUOUS
 62
     2
 10
18.00000000000728
 20
37.48310685425713
 30
0.0
 11
18.00000000000728
 21
41.79392658246979
 31
0.0
  0
LINE
  5
27E
  8
1
  6
CONTINUOUS
 62
     2
 10
25.00000000000728
 20
37.48310685425713
 30
0.0
 11
25.0
 21
37.48310685425713
 31
0.0
  0
LINE
  5
27F
  8
1
  6
CONTINUOUS
 62
     2
 10
25.00000000000728
 20
36.79191740082388
 30
0.0
 11
16.50000000000728
 21
36.79191740082388
 31
0.0
  0
LINE
  5
280
  8
1
  6
CONTINUOUS
 62
     2
 10
33.5
 20
36.79191740082388
 30
0.0
 11
31.00000000000728
 21
36.79191740082388
 31
0.0
  0
LINE
  5
281
  8
1
  6
CONTINUOUS
 62
     2
 10
25.0
 20
37.48310685425713
 30
0.0
 11
25.00000000000728
 21
41.79392658247161
 31
0.0
  0
LINE
  5
282
  8
1
  6
CONTINUOUS
 62
     2
 10
31.00000000000728
 20
36.79191740082388
 30
0.0
 11
25.0
 21
36.79191740082388
 31
0.0
  0
LINE
  5
283
  8
1
  6
CONTINUOUS
 62
     2
 10
35.00000000000728
 20
43.10273712903836
 30
0.0
 11
35.00000000000728
 21
41.79392658247161
 31
0.0
  0
LINE
  5
284
  8
1
  6
CONTINUOUS
 62
     2
 10
32.00000000000728
 20
43.10273712903836
 30
0.0
 11
32.00000000000728
 21
41.79392658247161
 31
0.0
  0
LINE
  5
285
  8
1
  6
CONTINUOUS
 62
     2
 10
15.00000000000728
 20
41.79392658247161
 30
0.0
 11
15.00000000000728
 21
43.10273712903836
 31
0.0
  0
LINE
  5
286
  8
1
  6
CONTINUOUS
 62
     2
 10
18.00000000000728
 20
41.79392658247161
 30
0.0
 11
18.00000000000728
 21
43.10273712903836
 31
0.0
  0
LINE
  5
287
  8
1
  6
CONTINUOUS
 62
     2
 10
25.0
 20
43.10273712903836
 30
0.0
 11
25.00000000000728
 21
43.10273712903836
 31
0.0
  0
LINE
  5
288
  8
1
  6
CONTINUOUS
 62
     2
 10
16.50000000000728
 20
43.79392658247161
 30
0.0
 11
19.0
 21
43.79392658247161
 31
0.0
  0
LINE
  5
289
  8
1
  6
CONTINUOUS
 62
     2
 10
31.00000000000728
 20
43.79392658247161
 30
0.0
 11
31.0
 21
43.79392658247161
 31
0.0
  0
LINE
  5
28A
  8
1
  6
CONTINUOUS
 62
     2
 10
25.00000000000728
 20
41.79392658247161
 30
0.0
 11
25.0
 21
43.10273712903836
 31
0.0
  0
LINE
  5
28B
  8
1
  6
CONTINUOUS
 62
     2
 10
25.0
 20
43.79392658247161
 30
0.0
 11
31.0
 21
43.79392658247161
 31
0.0
  0
LINE
  5
28C
  8
1
  6
DOT_CENTER
 62
     2
 10
25.0
 20
0.0
 30
0.0
 11
25.0
 21
228.0
 31
0.0
  0
LINE
  5
28D
  8
1
  6
CONTINUOUS
 62
     2
 10
20.5
 20
157.2899082191761
 30
0.0
 11
20.5
 21
132.2909128100018
 31
0.0
  0
LINE
  5
28E
  8
1
  6
CONTINUOUS
 62
     2
 10
29.5
 20
157.2899082191761
 30
0.0
 11
29.5
 21
132.2909128100018
 31
0.0
  0
LINE
  5
28F
  8
1
  6
CONTINUOUS
 62
     2
 10
16.50000000000728
 20
36.79191740082388
 30
0.0
 11
25.00000000000728
 21
36.79191740082388
 31
0.0
  0
LINE
  5
290
  8
1
  6
CONTINUOUS
 62
     7
 10
19.0
 20
157.2899082191761
 30
0.0
 11
19.0
 21
132.2909128100018
 31
0.0
  0
LINE
  5
291
  8
1
  6
CONTINUOUS
 62
     2
 10
31.0
 20
36.79191740082388
 30
0.0
 11
33.5
 21
36.79191740082388
 31
0.0
  0
LINE
  5
292
  8
1
  6
CONTINUOUS
 62
     2
 10
31.0
 20
36.79191740082388
 30
0.0
 11
31.00000000000728
 21
36.79191740082388
 31
0.0
  0
LINE
  5
293
  8
1
  6
CONTINUOUS
 62
     7
 10
31.0
 20
157.2899082191761
 30
0.0
 11
31.0
 21
132.2909128100018
 31
0.0
  0
LINE
  5
294
  8
1
  6
CONTINUOUS
 62
     2
 10
25.00000000000728
 20
34.79191740082388
 30
0.0
 11
25.00000000000728
 21
34.79191740082206
 31
0.0
  0
LINE
  5
295
  8
1
  6
CONTINUOUS
 62
     2
 10
32.00000000000728
 20
34.79191740082388
 30
0.0
 11
32.00000000000728
 21
30.48109767260939
 31
0.0
  0
LINE
  5
296
  8
1
  6
CONTINUOUS
 62
     2
 10
35.00000000000728
 20
34.79191740082388
 30
0.0
 11
35.00000000000728
 21
30.48109767260939
 31
0.0
  0
LINE
  5
297
  8
1
  6
CONTINUOUS
 62
     2
 10
35.00000000000728
 20
34.79191740082206
 30
0.0
 11
35.00000000000728
 21
34.79191740082388
 31
0.0
  0
LINE
  5
298
  8
1
  6
CONTINUOUS
 62
     2
 10
32.00000000000728
 20
34.79191740082206
 30
0.0
 11
32.00000000000728
 21
34.79191740082388
 31
0.0
  0
LINE
  5
299
  8
1
  6
CONTINUOUS
 62
     2
 10
15.00000000000728
 20
30.48109767260939
 30
0.0
 11
15.00000000000728
 21
34.79191740082206
 31
0.0
  0
LINE
  5
29A
  8
1
  6
CONTINUOUS
 62
     2
 10
18.00000000000728
 20
30.48109767260939
 30
0.0
 11
18.00000000000728
 21
34.79191740082206
 31
0.0
  0
LINE
  5
29B
  8
1
  6
CONTINUOUS
 62
     2
 10
25.00000000000728
 20
30.48109767260939
 30
0.0
 11
25.0
 21
30.48109767260939
 31
0.0
  0
LINE
  5
29C
  8
1
  6
CONTINUOUS
 62
     2
 10
25.00000000000728
 20
29.78990821917614
 30
0.0
 11
16.50000000000728
 21
29.78990821917614
 31
0.0
  0
LINE
  5
29D
  8
1
  6
CONTINUOUS
 62
     2
 10
33.5
 20
29.78990821917614
 30
0.0
 11
31.00000000000728
 21
29.78990821917614
 31
0.0
  0
LINE
  5
29E
  8
1
  6
CONTINUOUS
 62
     2
 10
25.0
 20
30.48109767260939
 30
0.0
 11
25.00000000000728
 21
34.79191740082388
 31
0.0
  0
LINE
  5
29F
  8
1
  6
CONTINUOUS
 62
     2
 10
31.00000000000728
 20
29.78990821917614
 30
0.0
 11
25.0
 21
29.78990821917614
 31
0.0
  0
LINE
  5
2A0
  8
1
  6
CONTINUOUS
 62
     2
 10
35.00000000000728
 20
36.10072794739062
 30
0.0
 11
35.00000000000728
 21
34.79191740082388
 31
0.0
  0
LINE
  5
2A1
  8
1
  6
CONTINUOUS
 62
     2
 10
32.00000000000728
 20
36.10072794739062
 30
0.0
 11
32.00000000000728
 21
34.79191740082388
 31
0.0
  0
LINE
  5
2A2
  8
1
  6
CONTINUOUS
 62
     2
 10
15.00000000000728
 20
34.79191740082388
 30
0.0
 11
15.00000000000728
 21
36.10072794739062
 31
0.0
  0
LINE
  5
2A3
  8
1
  6
CONTINUOUS
 62
     2
 10
18.00000000000728
 20
34.79191740082388
 30
0.0
 11
18.00000000000728
 21
36.10072794739062
 31
0.0
  0
LINE
  5
2A4
  8
1
  6
CONTINUOUS
 62
     2
 10
25.0
 20
36.10072794739062
 30
0.0
 11
25.00000000000728
 21
36.10072794739062
 31
0.0
  0
LINE
  5
2A5
  8
1
  6
CONTINUOUS
 62
     2
 10
31.00000000000728
 20
36.79191740082388
 30
0.0
 11
31.0
 21
36.79191740082388
 31
0.0
  0
LINE
  5
2A6
  8
1
  6
CONTINUOUS
 62
     2
 10
25.00000000000728
 20
34.79191740082388
 30
0.0
 11
25.0
 21
36.10072794739062
 31
0.0
  0
LINE
  5
2A7
  8
1
  6
CONTINUOUS
 62
     2
 10
25.0
 20
36.79191740082388
 30
0.0
 11
31.0
 21
36.79191740082388
 31
0.0
  0
LINE
  5
2A8
  8
1
  6
CONTINUOUS
 62
     7
 10
5.5
 20
8.291917400823877
 30
0.0
 11
44.5
 21
8.291917400823877
 31
0.0
  0
LINE
  5
2A9
  8
1
  6
CONTINUOUS
 62
     7
 10
5.5
 20
8.291917400823877
 30
0.0
 11
5.5
 21
11.29191740082388
 31
0.0
  0
LINE
  5
2AA
  8
1
  6
CONTINUOUS
 62
     7
 10
44.5
 20
11.29191740082388
 30
0.0
 11
5.0
 21
11.29191740082388
 31
0.0
  0
LINE
  5
2AB
  8
1
  6
CONTINUOUS
 62
     7
 10
44.5
 20
11.29191740082388
 30
0.0
 11
44.5
 21
8.291917400823877
 31
0.0
  0
LINE
  5
2AC
  8
1
  6
CONTINUOUS
 62
     2
 10
45.0
 20
14.29191740082388
 30
0.0
 11
5.0
 21
14.29191740082388
 31
0.0
  0
LINE
  5
2AD
  8
1
  6
CONTINUOUS
 62
     7
 10
5.0
 20
14.29191740082388
 30
0.0
 11
15.26669058629705
 21
28.29191740082388
 31
0.0
  0
LINE
  5
2AE
  8
1
  6
CONTINUOUS
 62
     7
 10
5.0
 20
11.29191740082388
 30
0.0
 11
5.0
 21
14.29191740082388
 31
0.0
  0
LINE
  5
2AF
  8
1
  6
CONTINUOUS
 62
     7
 10
45.0
 20
11.29191740082388
 30
0.0
 11
44.5
 21
11.29191740082388
 31
0.0
  0
LINE
  5
2B0
  8
1
  6
CONTINUOUS
 62
     7
 10
45.0
 20
14.29191740082388
 30
0.0
 11
45.0
 21
11.29191740082388
 31
0.0
  0
LINE
  5
2B1
  8
1
  6
CONTINUOUS
 62
     7
 10
35.00000000000728
 20
28.29191740082388
 30
0.0
 11
45.0
 21
14.29191740082388
 31
0.0
  0
LINE
  5
2B2
  8
1
  6
CONTINUOUS
 62
     7
 10
31.45880422556002
 20
28.29191740082388
 30
0.0
 11
27.97431033555767
 21
28.29191740082388
 31
0.0
  0
LINE
  5
2B3
  8
1
  6
CONTINUOUS
 62
     7
 10
31.45880422556002
 20
28.29191740082388
 30
0.0
 11
27.97431033555767
 21
28.29191740082388
 31
0.0
  0
LINE
  5
2B4
  8
1
  6
CONTINUOUS
 62
     7
 10
27.97431033555767
 20
28.29191740082388
 30
0.0
 11
25.0
 21
28.29191740082388
 31
0.0
  0
LINE
  5
2B5
  8
1
  6
CONTINUOUS
 62
     7
 10
27.97431033555767
 20
28.29191740082388
 30
0.0
 11
15.26669058629705
 21
28.29191740082388
 31
0.0
  0
LINE
  5
2B6
  8
1
  6
CONTINUOUS
 62
     7
 10
25.00000000000728
 20
28.29191740082388
 30
0.0
 11
15.73330941371751
 21
28.29191740082388
 31
0.0
  0
LINE
  5
2B7
  8
1
  6
CONTINUOUS
 62
     7
 10
35.00000000000728
 20
28.29191740082388
 30
0.0
 11
31.45880422556002
 21
28.29191740082388
 31
0.0
  0
LINE
  5
2B8
  8
1
  6
CONTINUOUS
 62
     7
 10
34.00000000000728
 20
28.29191740082388
 30
0.0
 11
31.45880422556002
 21
28.29191740082388
 31
0.0
  0
ARC
  5
2B9
  8
1
  6
CONTINUOUS
 62
     2
 10
21.50000000000728
 20
166.4970386212062
 30
0.0
 40
9.207130402030177
 50
247.6576354034192
 51
292.3423645965808
  0
ARC
  5
2BA
  8
1
  6
CONTINUOUS
 62
     2
 10
16.50000000000728
 20
159.2631319471911
 30
0.0
 40
1.973223728015
 50
270.0
 51
319.4798358560145
  0
ARC
  5
2BB
  8
1
  6
CONTINUOUS
 62
     2
 10
16.50000000000728
 20
159.2631319471911
 30
0.0
 40
1.973223728116593
 50
220.5201641439895
 51
270.0
  0
ARC
  5
2BC
  8
1
  6
CONTINUOUS
 62
     2
 10
28.5
 20
166.4970386212062
 30
0.0
 40
9.207130402030177
 50
247.6576354034192
 51
292.3423645965807
  0
ARC
  5
2BD
  8
1
  6
CONTINUOUS
 62
     2
 10
33.5
 20
159.2631319471911
 30
0.0
 40
1.973223728116593
 50
220.5201641439896
 51
270.0
  0
ARC
  5
2BE
  8
1
  6
CONTINUOUS
 62
     2
 10
33.5
 20
159.2631319471911
 30
0.0
 40
1.973223728015
 50
270.0
 51
319.4798358560145
  0
ARC
  5
2BF
  8
1
  6
CONTINUOUS
 62
     2
 10
21.50000000000728
 20
155.0847869987938
 30
0.0
 40
9.207130402030177
 50
67.6576354034192
 51
112.3423645965808
  0
ARC
  5
2C0
  8
1
  6
CONTINUOUS
 62
     2
 10
16.50000000000728
 20
162.3186936728089
 30
0.0
 40
1.973223728116593
 50
40.52016414399025
 51
90.0
  0
ARC
  5
2C1
  8
1
  6
CONTINUOUS
 62
     2
 10
16.50000000000728
 20
162.3186936728089
 30
0.0
 40
1.973223728015
 50
90.0
 51
139.4798358560139
  0
ARC
  5
2C2
  8
1
  6
CONTINUOUS
 62
     2
 10
28.5
 20
155.0847869987938
 30
0.0
 40
9.207130402030177
 50
67.6576354034192
 51
112.3423645965809
  0
ARC
  5
2C3
  8
1
  6
CONTINUOUS
 62
     2
 10
33.5
 20
162.3186936728089
 30
0.0
 40
1.973223728015
 50
90.0
 51
139.4798358560145
  0
ARC
  5
2C4
  8
1
  6
CONTINUOUS
 62
     2
 10
33.5
 20
162.3186936728089
 30
0.0
 40
1.973223728116593
 50
40.52016414398983
 51
90.0
  0
ARC
  5
2C5
  8
1
  6
CONTINUOUS
 62
     2
 10
21.50000000000728
 20
45.99904780285397
 30
0.0
 40
9.207130402030177
 50
247.6576354034192
 51
292.3423645965808
  0
ARC
  5
2C6
  8
1
  6
CONTINUOUS
 62
     2
 10
16.50000000000728
 20
38.76514112883888
 30
0.0
 40
1.973223728015
 50
270.0
 51
319.4798358560146
  0
ARC
  5
2C7
  8
1
  6
CONTINUOUS
 62
     2
 10
16.50000000000728
 20
38.76514112883888
 30
0.0
 40
1.973223728116593
 50
220.5201641439895
 51
270.0
  0
ARC
  5
2C8
  8
1
  6
CONTINUOUS
 62
     2
 10
28.5
 20
45.99904780285397
 30
0.0
 40
9.207130402030177
 50
247.6576354034192
 51
292.3423645965808
  0
ARC
  5
2C9
  8
1
  6
CONTINUOUS
 62
     2
 10
33.5
 20
38.76514112883888
 30
0.0
 40
1.973223728116593
 50
220.5201641439897
 51
270.0
  0
ARC
  5
2CA
  8
1
  6
CONTINUOUS
 62
     2
 10
33.5
 20
38.76514112883888
 30
0.0
 40
1.973223728015
 50
270.0
 51
319.4798358560146
  0
ARC
  5
2CB
  8
1
  6
CONTINUOUS
 62
     2
 10
21.50000000000728
 20
34.58679618044152
 30
0.0
 40
9.207130402030177
 50
67.65763540341923
 51
112.3423645965808
  0
ARC
  5
2CC
  8
1
  6
CONTINUOUS
 62
     2
 10
16.50000000000728
 20
41.82070285445661
 30
0.0
 40
1.973223728116593
 50
40.52016414398956
 51
90.0
  0
ARC
  5
2CD
  8
1
  6
CONTINUOUS
 62
     2
 10
16.50000000000728
 20
41.82070285445661
 30
0.0
 40
1.973223728015
 50
90.0
 51
139.4798358560146
  0
ARC
  5
2CE
  8
1
  6
CONTINUOUS
 62
     2
 10
28.5
 20
34.58679618044152
 30
0.0
 40
9.207130402030177
 50
67.6576354034192
 51
112.3423645965808
  0
ARC
  5
2CF
  8
1
  6
CONTINUOUS
 62
     2
 10
33.5
 20
41.82070285445661
 30
0.0
 40
1.973223728015
 50
90.0
 51
139.4798358560146
  0
ARC
  5
2D0
  8
1
  6
CONTINUOUS
 62
     2
 10
33.5
 20
41.82070285445661
 30
0.0
 40
1.973223728116593
 50
40.52016414398959
 51
90.0
  0
ARC
  5
2D1
  8
1
  6
CONTINUOUS
 62
     2
 10
21.50000000000728
 20
38.99703862120623
 30
0.0
 40
9.207130402030177
 50
247.6576354034191
 51
292.3423645965808
  0
ARC
  5
2D2
  8
1
  6
CONTINUOUS
 62
     2
 10
16.50000000000728
 20
31.76313194719114
 30
0.0
 40
1.973223728015
 50
270.0
 51
319.4798358560145
  0
ARC
  5
2D3
  8
1
  6
CONTINUOUS
 62
     2
 10
16.50000000000728
 20
31.76313194719114
 30
0.0
 40
1.973223728116593
 50
220.5201641439894
 51
270.0
  0
ARC
  5
2D4
  8
1
  6
CONTINUOUS
 62
     2
 10
28.5
 20
38.99703862120623
 30
0.0
 40
9.207130402030177
 50
247.6576354034191
 51
292.3423645965808
  0
ARC
  5
2D5
  8
1
  6
CONTINUOUS
 62
     2
 10
33.5
 20
31.76313194719114
 30
0.0
 40
1.973223728116593
 50
220.5201641439895
 51
270.0
  0
ARC
  5
2D6
  8
1
  6
CONTINUOUS
 62
     2
 10
33.5
 20
31.76313194719114
 30
0.0
 40
1.973223728015
 50
270.0
 51
319.4798358560145
  0
ARC
  5
2D7
  8
1
  6
CONTINUOUS
 62
     2
 10
21.50000000000728
 20
27.58478699879379
 30
0.0
 40
9.207130402030177
 50
67.65763540341926
 51
112.3423645965808
  0
ARC
  5
2D8
  8
1
  6
CONTINUOUS
 62
     2
 10
16.50000000000728
 20
34.81869367280888
 30
0.0
 40
1.973223728116593
 50
40.52016414398956
 51
90.0
  0
ARC
  5
2D9
  8
1
  6
CONTINUOUS
 62
     2
 10
16.50000000000728
 20
34.81869367280888
 30
0.0
 40
1.973223728015
 50
90.0
 51
139.4798358560146
  0
ARC
  5
2DA
  8
1
  6
CONTINUOUS
 62
     2
 10
28.5
 20
27.58478699879379
 30
0.0
 40
9.207130402030177
 50
67.65763540341926
 51
112.3423645965809
  0
ARC
  5
2DB
  8
1
  6
CONTINUOUS
 62
     2
 10
33.5
 20
34.81869367280888
 30
0.0
 40
1.973223728015
 50
90.0
 51
139.4798358560146
  0
ARC
  5
2DC
  8
1
  6
CONTINUOUS
 62
     2
 10
33.5
 20
34.81869367280888
 30
0.0
 40
1.973223728116593
 50
40.52016414398956
 51
90.0
  0
ARC
  5
2DD
  8
1
  6
CONTINUOUS
 62
     7
 10
19.99593150715009
 20
29.66441291056617
 30
0.0
 40
1.999999994060315
 50
176.3447865411296
 51
223.3338153368463
  0
ARC
  5
2DE
  8
1
  6
CONTINUOUS
 62
     7
 10
30.0040684928681
 20
29.66441291056617
 30
0.0
 40
1.999999994058361
 50
316.6661846631943
 51
3.65521345887905
  0
ENDBLK
  5
2E0
  8
0
  0
BLOCK
  8
0
  2
_9__11
 70
     0
 10
0.0
 20
0.0
 30
0.0
  3
_9__11
  1

  0
LINE
  5
2E3
  8
1
  6
CONTINUOUS
 62
     2
 10
63.0
 20
30.35512504601684
 30
0.0
 11
63.0
 21
33.1106033608703
 31
0.0
  0
LINE
  5
2E4
  8
1
  6
CONTINUOUS
 62
     2
 10
49.77648493150991
 20
32.48312919234559
 30
0.0
 11
49.77648493150991
 21
37.08022224727938
 31
0.0
  0
LINE
  5
2E5
  8
1
  6
CONTINUOUS
 62
     2
 10
44.58033250891822
 20
32.85002645895656
 30
0.0
 11
44.58033250891822
 21
35.02503295418683
 31
0.0
  0
LINE
  5
2E6
  8
1
  6
CONTINUOUS
 62
     2
 10
0.0
 20
33.11060336087394
 30
0.0
 11
0.0
 21
29.25443324619664
 31
0.0
  0
LINE
  5
2E7
  8
1
  6
CONTINUOUS
 62
     2
 10
13.22351506849009
 20
37.08022224727938
 30
0.0
 11
13.22351506849009
 21
32.40974973902667
 31
0.0
  0
LINE
  5
2E8
  8
1
  6
CONTINUOUS
 62
     2
 10
18.41966749107814
 20
37.08022224727938
 30
0.0
 11
18.41966749107814
 21
33.51044153884686
 31
0.0
  0
LINE
  5
2E9
  8
1
  6
CONTINUOUS
 62
     2
 10
42.0
 20
39.99999999963802
 30
0.0
 11
21.0
 21
40.00274139892645
 31
0.0
  0
ARC
  5
2EA
  8
1
  6
CONTINUOUS
 62
     2
 10
37.329919626638
 20
33.01606617392645
 30
0.0
 40
7.523591860788613
 50
15.48715271490783
 51
68.1669142966476
  0
ARC
  5
2EB
  8
1
  6
CONTINUOUS
 62
     2
 10
54.9513563966575
 20
34.04366082047272
 30
0.0
 40
5.99999999830185
 50
124.9099658427228
 51
149.5960269993358
  0
ARC
  5
2EC
  8
1
  6
CONTINUOUS
 62
     2
 10
41.48168579502817
 20
-8.997258601073554
 30
0.0
 40
49.00000000000168
 50
66.26093160688933
 51
89.39392305629399
  0
ARC
  5
2ED
  8
1
  6
CONTINUOUS
 62
     2
 10
21.51831420495728
 20
-8.997258601073554
 30
0.0
 40
49.00000000000066
 50
90.60607694368899
 51
113.7390683930973
  0
ARC
  5
2EE
  8
1
  6
CONTINUOUS
 62
     2
 10
23.59453895622937
 20
34.04366082047272
 30
0.0
 40
5.999999998303172
 50
96.91626541773591
 51
149.596026999354
  0
ARC
  5
2EF
  8
1
  6
CONTINUOUS
 62
     2
 10
8.04864360333886
 20
34.04366082047272
 30
0.0
 40
5.999999998300541
 50
30.40397300064857
 51
55.09003415726656
  0
ARC
  5
2F0
  8
1
  6
CONTINUOUS
 62
     2
 10
60.0
 20
33.1106033608703
 30
0.0
 40
3.0
 50
0.0000000000001357
 51
66.26093160695132
  0
ARC
  5
2F1
  8
1
  6
CONTINUOUS
 62
     2
 10
3.0
 20
33.11060336087394
 30
0.0
 40
2.999999999999531
 50
113.7390683931264
 51
180.0
  0
ENDBLK
  5
2F3
  8
0
  0
BLOCK
  8
0
  2
_2__12
 70
     0
 10
0.0
 20
0.0
 30
0.0
  3
_2__12
  1

  0
LINE
  5
2F6
  8
1
  6
CONTINUOUS
 62
     7
 10
-31.45880422556002
 20
28.29191740082388
 30
0.0
 11
-34.00000000001091
 21
28.29191740082388
 31
0.0
  0
LINE
  5
2F7
  8
1
  6
CONTINUOUS
 62
     7
 10
-31.45880422556002
 20
28.29191740082388
 30
0.0
 11
-35.00000000001091
 21
28.29191740082388
 31
0.0
  0
LINE
  5
2F8
  8
1
  6
CONTINUOUS
 62
     7
 10
-15.73330941372114
 20
28.29191740082388
 30
0.0
 11
-25.00000000001091
 21
28.29191740082388
 31
0.0
  0
LINE
  5
2F9
  8
1
  6
CONTINUOUS
 62
     7
 10
-15.26669058630068
 20
28.29191740082388
 30
0.0
 11
-27.97431033556131
 21
28.29191740082388
 31
0.0
  0
LINE
  5
2FA
  8
1
  6
CONTINUOUS
 62
     7
 10
-25.0
 20
28.29191740082388
 30
0.0
 11
-27.97431033556131
 21
28.29191740082388
 31
0.0
  0
LINE
  5
2FB
  8
1
  6
CONTINUOUS
 62
     7
 10
-27.97431033556131
 20
28.29191740082388
 30
0.0
 11
-31.45880422556002
 21
28.29191740082388
 31
0.0
  0
LINE
  5
2FC
  8
1
  6
CONTINUOUS
 62
     7
 10
-27.97431033556131
 20
28.29191740082388
 30
0.0
 11
-31.45880422556002
 21
28.29191740082388
 31
0.0
  0
LINE
  5
2FD
  8
1
  6
CONTINUOUS
 62
     7
 10
-45.0
 20
14.29191740082388
 30
0.0
 11
-35.00000000001091
 21
28.29191740082388
 31
0.0
  0
LINE
  5
2FE
  8
1
  6
CONTINUOUS
 62
     7
 10
-45.0
 20
11.29191740082388
 30
0.0
 11
-45.0
 21
14.29191740082388
 31
0.0
  0
LINE
  5
2FF
  8
1
  6
CONTINUOUS
 62
     7
 10
-44.5
 20
11.29191740082388
 30
0.0
 11
-45.0
 21
11.29191740082388
 31
0.0
  0
LINE
  5
300
  8
1
  6
CONTINUOUS
 62
     7
 10
-5.0
 20
14.29191740082388
 30
0.0
 11
-5.0
 21
11.29191740082388
 31
0.0
  0
LINE
  5
301
  8
1
  6
CONTINUOUS
 62
     7
 10
-15.26669058630068
 20
28.29191740082388
 30
0.0
 11
-5.0
 21
14.29191740082388
 31
0.0
  0
LINE
  5
302
  8
1
  6
CONTINUOUS
 62
     2
 10
-5.0
 20
14.29191740082388
 30
0.0
 11
-45.0
 21
14.29191740082388
 31
0.0
  0
LINE
  5
303
  8
1
  6
CONTINUOUS
 62
     7
 10
-44.5
 20
8.291917400823877
 30
0.0
 11
-44.5
 21
11.29191740082388
 31
0.0
  0
LINE
  5
304
  8
1
  6
CONTINUOUS
 62
     7
 10
-5.0
 20
11.29191740082388
 30
0.0
 11
-44.5
 21
11.29191740082388
 31
0.0
  0
LINE
  5
305
  8
1
  6
CONTINUOUS
 62
     7
 10
-5.5
 20
11.29191740082388
 30
0.0
 11
-5.5
 21
8.291917400823877
 31
0.0
  0
LINE
  5
306
  8
1
  6
CONTINUOUS
 62
     7
 10
-44.5
 20
8.291917400823877
 30
0.0
 11
-5.5
 21
8.291917400823877
 31
0.0
  0
LINE
  5
307
  8
1
  6
CONTINUOUS
 62
     2
 10
-31.0
 20
36.79191740082388
 30
0.0
 11
-25.0
 21
36.79191740082388
 31
0.0
  0
LINE
  5
308
  8
1
  6
CONTINUOUS
 62
     2
 10
-25.0
 20
36.10072794739062
 30
0.0
 11
-25.00000000001091
 21
34.79191740082388
 31
0.0
  0
LINE
  5
309
  8
1
  6
CONTINUOUS
 62
     2
 10
-31.0
 20
36.79191740082388
 30
0.0
 11
-31.00000000001091
 21
36.79191740082388
 31
0.0
  0
LINE
  5
30A
  8
1
  6
CONTINUOUS
 62
     2
 10
-25.00000000001091
 20
36.10072794739062
 30
0.0
 11
-25.0
 21
36.10072794739062
 31
0.0
  0
LINE
  5
30B
  8
1
  6
CONTINUOUS
 62
     2
 10
-18.00000000001091
 20
36.10072794739062
 30
0.0
 11
-18.00000000001091
 21
34.79191740082388
 31
0.0
  0
LINE
  5
30C
  8
1
  6
CONTINUOUS
 62
     2
 10
-15.00000000001091
 20
36.10072794739062
 30
0.0
 11
-15.00000000001091
 21
34.79191740082388
 31
0.0
  0
LINE
  5
30D
  8
1
  6
CONTINUOUS
 62
     2
 10
-32.00000000001091
 20
34.79191740082388
 30
0.0
 11
-32.00000000001091
 21
36.10072794739062
 31
0.0
  0
LINE
  5
30E
  8
1
  6
CONTINUOUS
 62
     2
 10
-35.00000000001091
 20
34.79191740082388
 30
0.0
 11
-35.00000000001091
 21
36.10072794739062
 31
0.0
  0
LINE
  5
30F
  8
1
  6
CONTINUOUS
 62
     2
 10
-25.0
 20
29.78990821917614
 30
0.0
 11
-31.00000000001091
 21
29.78990821917614
 31
0.0
  0
LINE
  5
310
  8
1
  6
CONTINUOUS
 62
     2
 10
-25.00000000001091
 20
34.79191740082388
 30
0.0
 11
-25.0
 21
30.48109767260939
 31
0.0
  0
LINE
  5
311
  8
1
  6
CONTINUOUS
 62
     2
 10
-31.00000000001091
 20
29.78990821917614
 30
0.0
 11
-33.5
 21
29.78990821917614
 31
0.0
  0
LINE
  5
312
  8
1
  6
CONTINUOUS
 62
     2
 10
-16.50000000001091
 20
29.78990821917614
 30
0.0
 11
-25.00000000001091
 21
29.78990821917614
 31
0.0
  0
LINE
  5
313
  8
1
  6
CONTINUOUS
 62
     2
 10
-25.0
 20
30.48109767260939
 30
0.0
 11
-25.00000000001091
 21
30.48109767260939
 31
0.0
  0
LINE
  5
314
  8
1
  6
CONTINUOUS
 62
     2
 10
-18.00000000001091
 20
34.79191740082206
 30
0.0
 11
-18.00000000001091
 21
30.48109767260939
 31
0.0
  0
LINE
  5
315
  8
1
  6
CONTINUOUS
 62
     2
 10
-15.00000000001091
 20
34.79191740082206
 30
0.0
 11
-15.00000000001091
 21
30.48109767260939
 31
0.0
  0
LINE
  5
316
  8
1
  6
CONTINUOUS
 62
     2
 10
-32.00000000001091
 20
34.79191740082388
 30
0.0
 11
-32.00000000001091
 21
34.79191740082206
 31
0.0
  0
LINE
  5
317
  8
1
  6
CONTINUOUS
 62
     2
 10
-35.00000000001091
 20
34.79191740082388
 30
0.0
 11
-35.00000000001091
 21
34.79191740082206
 31
0.0
  0
LINE
  5
318
  8
1
  6
CONTINUOUS
 62
     2
 10
-35.00000000001091
 20
30.48109767260939
 30
0.0
 11
-35.00000000001091
 21
34.79191740082388
 31
0.0
  0
LINE
  5
319
  8
1
  6
CONTINUOUS
 62
     2
 10
-32.00000000001091
 20
30.48109767260939
 30
0.0
 11
-32.00000000001091
 21
34.79191740082388
 31
0.0
  0
LINE
  5
31A
  8
1
  6
CONTINUOUS
 62
     2
 10
-25.00000000001091
 20
34.79191740082206
 30
0.0
 11
-25.00000000001091
 21
34.79191740082388
 31
0.0
  0
LINE
  5
31B
  8
1
  6
CONTINUOUS
 62
     7
 10
-31.0
 20
132.2909128100018
 30
0.0
 11
-31.0
 21
157.2899082191761
 31
0.0
  0
LINE
  5
31C
  8
1
  6
CONTINUOUS
 62
     2
 10
-31.00000000001091
 20
36.79191740082388
 30
0.0
 11
-31.0
 21
36.79191740082388
 31
0.0
  0
LINE
  5
31D
  8
1
  6
CONTINUOUS
 62
     2
 10
-33.5
 20
36.79191740082388
 30
0.0
 11
-31.0
 21
36.79191740082388
 31
0.0
  0
LINE
  5
31E
  8
1
  6
CONTINUOUS
 62
     7
 10
-19.0
 20
132.2909128100018
 30
0.0
 11
-19.0
 21
157.2899082191761
 31
0.0
  0
LINE
  5
31F
  8
1
  6
CONTINUOUS
 62
     2
 10
-25.00000000001091
 20
36.79191740082388
 30
0.0
 11
-16.50000000001091
 21
36.79191740082388
 31
0.0
  0
LINE
  5
320
  8
1
  6
CONTINUOUS
 62
     2
 10
-29.5
 20
132.2909128100018
 30
0.0
 11
-29.5
 21
157.2899082191761
 31
0.0
  0
LINE
  5
321
  8
1
  6
CONTINUOUS
 62
     2
 10
-20.5
 20
132.2909128100018
 30
0.0
 11
-20.5
 21
157.2899082191761
 31
0.0
  0
LINE
  5
322
  8
1
  6
DOT_CENTER
 62
     2
 10
-25.0
 20
228.0
 30
0.0
 11
-25.0
 21
0.0
 31
0.0
  0
LINE
  5
323
  8
1
  6
CONTINUOUS
 62
     2
 10
-31.0
 20
43.79392658247161
 30
0.0
 11
-25.0
 21
43.79392658247161
 31
0.0
  0
LINE
  5
324
  8
1
  6
CONTINUOUS
 62
     2
 10
-25.0
 20
43.10273712903836
 30
0.0
 11
-25.00000000001091
 21
41.79392658247161
 31
0.0
  0
LINE
  5
325
  8
1
  6
CONTINUOUS
 62
     2
 10
-31.0
 20
43.79392658247161
 30
0.0
 11
-31.00000000001091
 21
43.79392658247161
 31
0.0
  0
LINE
  5
326
  8
1
  6
CONTINUOUS
 62
     2
 10
-19.0
 20
43.79392658247161
 30
0.0
 11
-16.50000000001091
 21
43.79392658247161
 31
0.0
  0
LINE
  5
327
  8
1
  6
CONTINUOUS
 62
     2
 10
-25.00000000001091
 20
43.10273712903836
 30
0.0
 11
-25.0
 21
43.10273712903836
 31
0.0
  0
LINE
  5
328
  8
1
  6
CONTINUOUS
 62
     2
 10
-18.00000000001091
 20
43.10273712903836
 30
0.0
 11
-18.00000000001091
 21
41.79392658247161
 31
0.0
  0
LINE
  5
329
  8
1
  6
CONTINUOUS
 62
     2
 10
-15.00000000001091
 20
43.10273712903836
 30
0.0
 11
-15.00000000001091
 21
41.79392658247161
 31
0.0
  0
LINE
  5
32A
  8
1
  6
CONTINUOUS
 62
     2
 10
-32.00000000001091
 20
41.79392658247161
 30
0.0
 11
-32.00000000001091
 21
43.10273712903836
 31
0.0
  0
LINE
  5
32B
  8
1
  6
CONTINUOUS
 62
     2
 10
-35.00000000001091
 20
41.79392658247161
 30
0.0
 11
-35.00000000001091
 21
43.10273712903836
 31
0.0
  0
LINE
  5
32C
  8
1
  6
CONTINUOUS
 62
     2
 10
-25.0
 20
36.79191740082388
 30
0.0
 11
-31.00000000001091
 21
36.79191740082388
 31
0.0
  0
LINE
  5
32D
  8
1
  6
CONTINUOUS
 62
     2
 10
-25.00000000001091
 20
41.79392658247161
 30
0.0
 11
-25.0
 21
37.48310685425713
 31
0.0
  0
LINE
  5
32E
  8
1
  6
CONTINUOUS
 62
     2
 10
-31.00000000001091
 20
36.79191740082388
 30
0.0
 11
-33.5
 21
36.79191740082388
 31
0.0
  0
LINE
  5
32F
  8
1
  6
CONTINUOUS
 62
     2
 10
-16.50000000001091
 20
36.79191740082388
 30
0.0
 11
-25.00000000001091
 21
36.79191740082388
 31
0.0
  0
LINE
  5
330
  8
1
  6
CONTINUOUS
 62
     2
 10
-25.0
 20
37.48310685425713
 30
0.0
 11
-25.00000000001091
 21
37.48310685425713
 31
0.0
  0
LINE
  5
331
  8
1
  6
CONTINUOUS
 62
     2
 10
-18.00000000001091
 20
41.79392658246979
 30
0.0
 11
-18.00000000001091
 21
37.48310685425713
 31
0.0
  0
LINE
  5
332
  8
1
  6
CONTINUOUS
 62
     2
 10
-15.00000000001091
 20
41.79392658246979
 30
0.0
 11
-15.00000000001091
 21
37.48310685425713
 31
0.0
  0
LINE
  5
333
  8
1
  6
CONTINUOUS
 62
     2
 10
-32.00000000001091
 20
41.79392658247161
 30
0.0
 11
-32.00000000001091
 21
41.79392658246979
 31
0.0
  0
LINE
  5
334
  8
1
  6
CONTINUOUS
 62
     2
 10
-35.00000000001091
 20
41.79392658247161
 30
0.0
 11
-35.00000000001091
 21
41.79392658246979
 31
0.0
  0
LINE
  5
335
  8
1
  6
CONTINUOUS
 62
     2
 10
-35.00000000001091
 20
37.48310685425713
 30
0.0
 11
-35.00000000001091
 21
41.79392658247161
 31
0.0
  0
LINE
  5
336
  8
1
  6
CONTINUOUS
 62
     2
 10
-32.00000000001091
 20
37.48310685425713
 30
0.0
 11
-32.00000000001091
 21
41.79392658247161
 31
0.0
  0
LINE
  5
337
  8
1
  6
CONTINUOUS
 62
     2
 10
-25.00000000001091
 20
41.79392658246979
 30
0.0
 11
-25.00000000001091
 21
41.79392658247161
 31
0.0
  0
LINE
  5
338
  8
1
  6
CONTINUOUS
 62
     2
 10
-31.00000000001091
 20
43.79392658247161
 30
0.0
 11
-31.0
 21
43.79392658247161
 31
0.0
  0
LINE
  5
339
  8
1
  6
CONTINUOUS
 62
     2
 10
-33.5
 20
43.79392658247161
 30
0.0
 11
-31.0
 21
43.79392658247161
 31
0.0
  0
LINE
  5
33A
  8
1
  6
CONTINUOUS
 62
     2
 10
-25.00000000001091
 20
43.79392658247161
 30
0.0
 11
-19.0
 21
43.79392658247161
 31
0.0
  0
LINE
  5
33B
  8
1
  6
CONTINUOUS
 62
     2
 10
-31.0
 20
157.2899082191761
 30
0.0
 11
-25.0
 21
157.2899082191761
 31
0.0
  0
LINE
  5
33C
  8
1
  6
CONTINUOUS
 62
     2
 10
-31.0
 20
157.2899082191761
 30
0.0
 11
-31.00000000001091
 21
157.2899082191761
 31
0.0
  0
LINE
  5
33D
  8
1
  6
CONTINUOUS
 62
     2
 10
-25.00000000001091
 20
156.5987187657429
 30
0.0
 11
-25.0
 21
156.5987187657429
 31
0.0
  0
LINE
  5
33E
  8
1
  6
CONTINUOUS
 62
     2
 10
-31.00000000001091
 20
157.2899082191761
 30
0.0
 11
-31.0
 21
157.2899082191761
 31
0.0
  0
LINE
  5
33F
  8
1
  6
CONTINUOUS
 62
     2
 10
-33.5
 20
157.2899082191761
 30
0.0
 11
-31.0
 21
157.2899082191761
 31
0.0
  0
LINE
  5
340
  8
1
  6
CONTINUOUS
 62
     2
 10
-25.00000000001091
 20
157.2899082191761
 30
0.0
 11
-16.50000000001091
 21
157.2899082191761
 31
0.0
  0
LINE
  5
341
  8
1
  6
CONTINUOUS
 62
     2
 10
-31.0
 20
164.2919174008239
 30
0.0
 11
-25.0
 21
164.2919174008239
 31
0.0
  0
LINE
  5
342
  8
1
  6
CONTINUOUS
 62
     2
 10
-25.0
 20
163.6007279473906
 30
0.0
 11
-25.00000000001091
 21
162.2919174008239
 31
0.0
  0
LINE
  5
343
  8
1
  6
CONTINUOUS
 62
     2
 10
-31.0
 20
164.2919174008239
 30
0.0
 11
-31.00000000001091
 21
164.2919174008239
 31
0.0
  0
LINE
  5
344
  8
1
  6
CONTINUOUS
 62
     2
 10
-19.0
 20
164.2919174008239
 30
0.0
 11
-16.50000000001091
 21
164.2919174008239
 31
0.0
  0
LINE
  5
345
  8
1
  6
CONTINUOUS
 62
     2
 10
-25.00000000001091
 20
163.6007279473906
 30
0.0
 11
-25.0
 21
163.6007279473906
 31
0.0
  0
LINE
  5
346
  8
1
  6
CONTINUOUS
 62
     2
 10
-18.00000000001091
 20
163.6007279473906
 30
0.0
 11
-18.00000000001091
 21
162.2919174008239
 31
0.0
  0
LINE
  5
347
  8
1
  6
CONTINUOUS
 62
     2
 10
-15.00000000001091
 20
163.6007279473906
 30
0.0
 11
-15.00000000001091
 21
162.2919174008239
 31
0.0
  0
LINE
  5
348
  8
1
  6
CONTINUOUS
 62
     2
 10
-32.00000000001091
 20
162.2919174008239
 30
0.0
 11
-32.00000000001091
 21
163.6007279473906
 31
0.0
  0
LINE
  5
349
  8
1
  6
CONTINUOUS
 62
     2
 10
-35.00000000001091
 20
162.2919174008239
 30
0.0
 11
-35.00000000001091
 21
163.6007279473906
 31
0.0
  0
LINE
  5
34A
  8
1
  6
CONTINUOUS
 62
     2
 10
-25.0
 20
157.2899082191761
 30
0.0
 11
-31.00000000001091
 21
157.2899082191761
 31
0.0
  0
LINE
  5
34B
  8
1
  6
CONTINUOUS
 62
     2
 10
-25.00000000001091
 20
162.2919174008239
 30
0.0
 11
-25.0
 21
157.9810976726094
 31
0.0
  0
LINE
  5
34C
  8
1
  6
CONTINUOUS
 62
     2
 10
-31.00000000001091
 20
157.2899082191761
 30
0.0
 11
-33.5
 21
157.2899082191761
 31
0.0
  0
LINE
  5
34D
  8
1
  6
CONTINUOUS
 62
     2
 10
-16.50000000001091
 20
157.2899082191761
 30
0.0
 11
-25.00000000001091
 21
157.2899082191761
 31
0.0
  0
LINE
  5
34E
  8
1
  6
CONTINUOUS
 62
     2
 10
-25.0
 20
157.9810976726094
 30
0.0
 11
-25.00000000001091
 21
157.9810976726094
 31
0.0
  0
LINE
  5
34F
  8
1
  6
CONTINUOUS
 62
     2
 10
-18.00000000001091
 20
162.2919174008221
 30
0.0
 11
-18.00000000001091
 21
157.9810976726094
 31
0.0
  0
LINE
  5
350
  8
1
  6
CONTINUOUS
 62
     2
 10
-15.00000000001091
 20
162.2919174008221
 30
0.0
 11
-15.00000000001091
 21
157.9810976726094
 31
0.0
  0
LINE
  5
351
  8
1
  6
CONTINUOUS
 62
     2
 10
-32.00000000001091
 20
162.2919174008239
 30
0.0
 11
-32.00000000001091
 21
162.2919174008221
 31
0.0
  0
LINE
  5
352
  8
1
  6
CONTINUOUS
 62
     2
 10
-35.00000000001091
 20
162.2919174008239
 30
0.0
 11
-35.00000000001091
 21
162.2919174008221
 31
0.0
  0
LINE
  5
353
  8
1
  6
CONTINUOUS
 62
     2
 10
-35.00000000001091
 20
157.9810976726094
 30
0.0
 11
-35.00000000001091
 21
162.2919174008239
 31
0.0
  0
LINE
  5
354
  8
1
  6
CONTINUOUS
 62
     2
 10
-32.00000000001091
 20
157.9810976726094
 30
0.0
 11
-32.00000000001091
 21
162.2919174008239
 31
0.0
  0
LINE
  5
355
  8
1
  6
CONTINUOUS
 62
     2
 10
-25.00000000001091
 20
162.2919174008221
 30
0.0
 11
-25.00000000001091
 21
162.2919174008239
 31
0.0
  0
LINE
  5
356
  8
1
  6
CONTINUOUS
 62
     2
 10
-31.00000000001091
 20
164.2919174008239
 30
0.0
 11
-31.0
 21
164.2919174008239
 31
0.0
  0
LINE
  5
357
  8
1
  6
CONTINUOUS
 62
     2
 10
-33.5
 20
164.2919174008239
 30
0.0
 11
-31.0
 21
164.2919174008239
 31
0.0
  0
LINE
  5
358
  8
1
  6
CONTINUOUS
 62
     2
 10
-25.00000000001091
 20
164.2919174008239
 30
0.0
 11
-19.0
 21
164.2919174008239
 31
0.0
  0
LINE
  5
359
  8
1
  6
CONTINUOUS
 62
     7
 10
-19.0
 20
43.79392658247161
 30
0.0
 11
-19.0
 21
81.29091281000183
 31
0.0
  0
LINE
  5
35A
  8
1
  6
CONTINUOUS
 62
     2
 10
-20.5
 20
43.79392658247161
 30
0.0
 11
-20.5
 21
81.29091281000183
 31
0.0
  0
LINE
  5
35B
  8
1
  6
CONTINUOUS
 62
     2
 10
-29.5
 20
43.73945974030175
 30
0.0
 11
-29.5
 21
81.29091281000183
 31
0.0
  0
LINE
  5
35C
  8
1
  6
CONTINUOUS
 62
     7
 10
-31.00000000001091
 20
43.79392658247161
 30
0.0
 11
-31.0
 21
81.29091281000183
 31
0.0
  0
ARC
  5
35D
  8
1
  6
CONTINUOUS
 62
     7
 10
-30.00406849287174
 20
29.66441291056617
 30
0.0
 40
1.999999994056685
 50
176.3447865411232
 51
223.3338153368801
  0
ARC
  5
35E
  8
1
  6
CONTINUOUS
 62
     7
 10
-19.99593150715009
 20
29.66441291056617
 30
0.0
 40
1.999999994055714
 50
316.6661846631202
 51
3.655213458877181
  0
ARC
  5
35F
  8
1
  6
CONTINUOUS
 62
     2
 10
-33.5
 20
34.81869367280888
 30
0.0
 40
1.973223728015
 50
90.0
 51
139.4798358560147
  0
ARC
  5
360
  8
1
  6
CONTINUOUS
 62
     2
 10
-33.5
 20
34.81869367280888
 30
0.0
 40
1.973223728116593
 50
40.52016414398905
 51
90.0
  0
ARC
  5
361
  8
1
  6
CONTINUOUS
 62
     2
 10
-28.5
 20
27.58478699879379
 30
0.0
 40
9.207130402030177
 50
67.65763540341926
 51
112.3423645965808
  0
ARC
  5
362
  8
1
  6
CONTINUOUS
 62
     2
 10
-16.50000000001091
 20
34.81869367280888
 30
0.0
 40
1.973223728116593
 50
40.52016414398963
 51
90.0
  0
ARC
  5
363
  8
1
  6
CONTINUOUS
 62
     2
 10
-16.50000000001091
 20
34.81869367280888
 30
0.0
 40
1.973223728015
 50
90.0
 51
139.4798358560146
  0
ARC
  5
364
  8
1
  6
CONTINUOUS
 62
     2
 10
-21.50000000001091
 20
27.58478699879379
 30
0.0
 40
9.207130402030177
 50
67.65763540341926
 51
112.3423645965808
  0
ARC
  5
365
  8
1
  6
CONTINUOUS
 62
     2
 10
-33.5
 20
31.76313194719114
 30
0.0
 40
1.973223728116593
 50
220.5201641439896
 51
270.0
  0
ARC
  5
366
  8
1
  6
CONTINUOUS
 62
     2
 10
-33.5
 20
31.76313194719114
 30
0.0
 40
1.973223728015
 50
270.0
 51
319.4798358560145
  0
ARC
  5
367
  8
1
  6
CONTINUOUS
 62
     2
 10
-28.5
 20
38.99703862120623
 30
0.0
 40
9.207130402030177
 50
247.6576354034191
 51
292.3423645965808
  0
ARC
  5
368
  8
1
  6
CONTINUOUS
 62
     2
 10
-16.50000000001091
 20
31.76313194719114
 30
0.0
 40
1.973223728015
 50
270.0
 51
319.4798358560145
  0
ARC
  5
369
  8
1
  6
CONTINUOUS
 62
     2
 10
-16.50000000001091
 20
31.76313194719114
 30
0.0
 40
1.973223728116593
 50
220.5201641439894
 51
270.0
  0
ARC
  5
36A
  8
1
  6
CONTINUOUS
 62
     2
 10
-21.50000000001091
 20
38.99703862120623
 30
0.0
 40
9.207130402030177
 50
247.6576354034191
 51
292.3423645965808
  0
ARC
  5
36B
  8
1
  6
CONTINUOUS
 62
     2
 10
-33.5
 20
41.82070285445661
 30
0.0
 40
1.973223728015
 50
90.0
 51
139.4798358560146
  0
ARC
  5
36C
  8
1
  6
CONTINUOUS
 62
     2
 10
-33.5
 20
41.82070285445661
 30
0.0
 40
1.973223728116593
 50
40.52016414398934
 51
90.0
  0
ARC
  5
36D
  8
1
  6
CONTINUOUS
 62
     2
 10
-28.5
 20
34.58679618044152
 30
0.0
 40
9.207130402030177
 50
67.65763540341933
 51
112.3423645965809
  0
ARC
  5
36E
  8
1
  6
CONTINUOUS
 62
     2
 10
-16.50000000001091
 20
41.82070285445661
 30
0.0
 40
1.973223728116593
 50
40.52016414398934
 51
90.0
  0
ARC
  5
36F
  8
1
  6
CONTINUOUS
 62
     2
 10
-16.50000000001091
 20
41.82070285445661
 30
0.0
 40
1.973223728015
 50
90.0
 51
139.4798358560147
  0
ARC
  5
370
  8
1
  6
CONTINUOUS
 62
     2
 10
-21.50000000001091
 20
34.58679618044152
 30
0.0
 40
9.207130402030177
 50
67.65763540341918
 51
112.3423645965808
  0
ARC
  5
371
  8
1
  6
CONTINUOUS
 62
     2
 10
-33.5
 20
38.76514112883888
 30
0.0
 40
1.973223728116593
 50
220.5201641439899
 51
270.0
  0
ARC
  5
372
  8
1
  6
CONTINUOUS
 62
     2
 10
-33.5
 20
38.76514112883888
 30
0.0
 40
1.973223728015
 50
270.0
 51
319.4798358560147
  0
ARC
  5
373
  8
1
  6
CONTINUOUS
 62
     2
 10
-28.5
 20
45.99904780285397
 30
0.0
 40
9.207130402030177
 50
247.6576354034191
 51
292.3423645965808
  0
ARC
  5
374
  8
1
  6
CONTINUOUS
 62
     2
 10
-16.50000000001091
 20
38.76514112883888
 30
0.0
 40
1.973223728015
 50
270.0
 51
319.4798358560146
  0
ARC
  5
375
  8
1
  6
CONTINUOUS
 62
     2
 10
-16.50000000001091
 20
38.76514112883888
 30
0.0
 40
1.973223728116593
 50
220.5201641439899
 51
270.0
  0
ARC
  5
376
  8
1
  6
CONTINUOUS
 62
     2
 10
-21.50000000001091
 20
45.99904780285397
 30
0.0
 40
9.207130402030177
 50
247.6576354034191
 51
292.3423645965808
  0
ARC
  5
377
  8
1
  6
CONTINUOUS
 62
     2
 10
-33.5
 20
162.3186936728089
 30
0.0
 40
1.973223728015
 50
90.0
 51
139.4798358560147
  0
ARC
  5
378
  8
1
  6
CONTINUOUS
 62
     2
 10
-33.5
 20
162.3186936728089
 30
0.0
 40
1.973223728116593
 50
40.52016414398943
 51
90.0
  0
ARC
  5
379
  8
1
  6
CONTINUOUS
 62
     2
 10
-28.5
 20
155.0847869987938
 30
0.0
 40
9.207130402030177
 50
67.65763540341918
 51
112.3423645965808
  0
ARC
  5
37A
  8
1
  6
CONTINUOUS
 62
     2
 10
-16.50000000001091
 20
162.3186936728089
 30
0.0
 40
1.973223728116593
 50
40.52016414398949
 51
90.0
  0
ARC
  5
37B
  8
1
  6
CONTINUOUS
 62
     2
 10
-16.50000000001091
 20
162.3186936728089
 30
0.0
 40
1.973223728015
 50
90.0
 51
139.4798358560151
  0
ARC
  5
37C
  8
1
  6
CONTINUOUS
 62
     2
 10
-21.50000000001091
 20
155.0847869987938
 30
0.0
 40
9.207130402030177
 50
67.65763540341918
 51
112.3423645965809
  0
ARC
  5
37D
  8
1
  6
CONTINUOUS
 62
     2
 10
-33.5
 20
159.2631319471911
 30
0.0
 40
1.973223728116593
 50
220.5201641439902
 51
270.0
  0
ARC
  5
37E
  8
1
  6
CONTINUOUS
 62
     2
 10
-33.5
 20
159.2631319471911
 30
0.0
 40
1.973223728015
 50
270.0
 51
319.4798358560137
  0
ARC
  5
37F
  8
1
  6
CONTINUOUS
 62
     2
 10
-28.5
 20
166.4970386212062
 30
0.0
 40
9.207130402030177
 50
247.6576354034191
 51
292.3423645965808
  0
ARC
  5
380
  8
1
  6
CONTINUOUS
 62
     2
 10
-16.50000000001091
 20
159.2631319471911
 30
0.0
 40
1.973223728015
 50
270.0
 51
319.4798358560145
  0
ARC
  5
381
  8
1
  6
CONTINUOUS
 62
     2
 10
-16.50000000001091
 20
159.2631319471911
 30
0.0
 40
1.973223728116593
 50
220.5201641439902
 51
270.0
  0
ARC
  5
382
  8
1
  6
CONTINUOUS
 62
     2
 10
-21.50000000001091
 20
166.4970386212062
 30
0.0
 40
9.207130402030177
 50
247.6576354034192
 51
292.3423645965808
  0
ENDBLK
  5
384
  8
0
  0
BLOCK
  8
0
  2
_2__13
 70
     0
 10
0.0
 20
0.0
 30
0.0
  3
_2__13
  1

  0
LINE
  5
387
  8
1
  6
CONTINUOUS
 62
     7
 10
-31.00000000001091
 20
43.79392658247161
 30
0.0
 11
-31.00000000001091
 21
81.29091281000183
 31
0.0
  0
LINE
  5
388
  8
1
  6
CONTINUOUS
 62
     2
 10
-29.5
 20
43.73945974030175
 30
0.0
 11
-29.5
 21
81.29091281000183
 31
0.0
  0
LINE
  5
389
  8
1
  6
CONTINUOUS
 62
     2
 10
-20.5
 20
43.79392658247161
 30
0.0
 11
-20.5
 21
81.29091281000183
 31
0.0
  0
LINE
  5
38A
  8
1
  6
CONTINUOUS
 62
     7
 10
-19.0
 20
43.79392658247161
 30
0.0
 11
-19.0
 21
81.29091281000183
 31
0.0
  0
LINE
  5
38B
  8
1
  6
CONTINUOUS
 62
     2
 10
-25.00000000001091
 20
164.2919174008239
 30
0.0
 11
-19.0
 21
164.2919174008239
 31
0.0
  0
LINE
  5
38C
  8
1
  6
CONTINUOUS
 62
     2
 10
-33.5
 20
164.2919174008239
 30
0.0
 11
-31.0
 21
164.2919174008239
 31
0.0
  0
LINE
  5
38D
  8
1
  6
CONTINUOUS
 62
     2
 10
-31.00000000001091
 20
164.2919174008239
 30
0.0
 11
-31.0
 21
164.2919174008239
 31
0.0
  0
LINE
  5
38E
  8
1
  6
CONTINUOUS
 62
     2
 10
-25.00000000001091
 20
162.2919174008221
 30
0.0
 11
-25.00000000001091
 21
162.2919174008239
 31
0.0
  0
LINE
  5
38F
  8
1
  6
CONTINUOUS
 62
     2
 10
-32.00000000001091
 20
157.9810976726094
 30
0.0
 11
-32.00000000001091
 21
162.2919174008239
 31
0.0
  0
LINE
  5
390
  8
1
  6
CONTINUOUS
 62
     2
 10
-35.00000000001091
 20
157.9810976726094
 30
0.0
 11
-35.00000000001091
 21
162.2919174008239
 31
0.0
  0
LINE
  5
391
  8
1
  6
CONTINUOUS
 62
     2
 10
-35.00000000001091
 20
162.2919174008239
 30
0.0
 11
-35.00000000001091
 21
162.2919174008221
 31
0.0
  0
LINE
  5
392
  8
1
  6
CONTINUOUS
 62
     2
 10
-32.00000000001091
 20
162.2919174008239
 30
0.0
 11
-32.00000000001091
 21
162.2919174008221
 31
0.0
  0
LINE
  5
393
  8
1
  6
CONTINUOUS
 62
     2
 10
-15.00000000001091
 20
162.2919174008221
 30
0.0
 11
-15.00000000001091
 21
157.9810976726094
 31
0.0
  0
LINE
  5
394
  8
1
  6
CONTINUOUS
 62
     2
 10
-18.00000000001091
 20
162.2919174008221
 30
0.0
 11
-18.00000000001091
 21
157.9810976726094
 31
0.0
  0
LINE
  5
395
  8
1
  6
CONTINUOUS
 62
     2
 10
-25.0
 20
157.9810976726094
 30
0.0
 11
-25.00000000001091
 21
157.9810976726094
 31
0.0
  0
LINE
  5
396
  8
1
  6
CONTINUOUS
 62
     2
 10
-16.50000000001091
 20
157.2899082191761
 30
0.0
 11
-25.00000000001091
 21
157.2899082191761
 31
0.0
  0
LINE
  5
397
  8
1
  6
CONTINUOUS
 62
     2
 10
-31.00000000001091
 20
157.2899082191761
 30
0.0
 11
-33.5
 21
157.2899082191761
 31
0.0
  0
LINE
  5
398
  8
1
  6
CONTINUOUS
 62
     2
 10
-25.00000000001091
 20
162.2919174008239
 30
0.0
 11
-25.0
 21
157.9810976726094
 31
0.0
  0
LINE
  5
399
  8
1
  6
CONTINUOUS
 62
     2
 10
-25.0
 20
157.2899082191761
 30
0.0
 11
-31.00000000001091
 21
157.2899082191761
 31
0.0
  0
LINE
  5
39A
  8
1
  6
CONTINUOUS
 62
     2
 10
-35.00000000001091
 20
162.2919174008239
 30
0.0
 11
-35.00000000001091
 21
163.6007279473906
 31
0.0
  0
LINE
  5
39B
  8
1
  6
CONTINUOUS
 62
     2
 10
-32.00000000001091
 20
162.2919174008239
 30
0.0
 11
-32.00000000001091
 21
163.6007279473906
 31
0.0
  0
LINE
  5
39C
  8
1
  6
CONTINUOUS
 62
     2
 10
-15.00000000001091
 20
163.6007279473906
 30
0.0
 11
-15.00000000001091
 21
162.2919174008239
 31
0.0
  0
LINE
  5
39D
  8
1
  6
CONTINUOUS
 62
     2
 10
-18.00000000001091
 20
163.6007279473906
 30
0.0
 11
-18.00000000001091
 21
162.2919174008239
 31
0.0
  0
LINE
  5
39E
  8
1
  6
CONTINUOUS
 62
     2
 10
-25.00000000001091
 20
163.6007279473906
 30
0.0
 11
-25.0
 21
163.6007279473906
 31
0.0
  0
LINE
  5
39F
  8
1
  6
CONTINUOUS
 62
     2
 10
-19.0
 20
164.2919174008239
 30
0.0
 11
-16.50000000001091
 21
164.2919174008239
 31
0.0
  0
LINE
  5
3A0
  8
1
  6
CONTINUOUS
 62
     2
 10
-31.0
 20
164.2919174008239
 30
0.0
 11
-31.00000000001091
 21
164.2919174008239
 31
0.0
  0
LINE
  5
3A1
  8
1
  6
CONTINUOUS
 62
     2
 10
-25.0
 20
163.6007279473906
 30
0.0
 11
-25.00000000001091
 21
162.2919174008239
 31
0.0
  0
LINE
  5
3A2
  8
1
  6
CONTINUOUS
 62
     2
 10
-31.0
 20
164.2919174008239
 30
0.0
 11
-25.0
 21
164.2919174008239
 31
0.0
  0
LINE
  5
3A3
  8
1
  6
CONTINUOUS
 62
     2
 10
-25.00000000001091
 20
157.2899082191761
 30
0.0
 11
-16.50000000001091
 21
157.2899082191761
 31
0.0
  0
LINE
  5
3A4
  8
1
  6
CONTINUOUS
 62
     2
 10
-33.5
 20
157.2899082191761
 30
0.0
 11
-31.0
 21
157.2899082191761
 31
0.0
  0
LINE
  5
3A5
  8
1
  6
CONTINUOUS
 62
     2
 10
-31.00000000001091
 20
157.2899082191761
 30
0.0
 11
-31.0
 21
157.2899082191761
 31
0.0
  0
LINE
  5
3A6
  8
1
  6
CONTINUOUS
 62
     2
 10
-25.00000000001091
 20
156.5987187657429
 30
0.0
 11
-25.0
 21
156.5987187657429
 31
0.0
  0
LINE
  5
3A7
  8
1
  6
CONTINUOUS
 62
     2
 10
-31.0
 20
157.2899082191761
 30
0.0
 11
-31.00000000001091
 21
157.2899082191761
 31
0.0
  0
LINE
  5
3A8
  8
1
  6
CONTINUOUS
 62
     2
 10
-31.0
 20
157.2899082191761
 30
0.0
 11
-25.0
 21
157.2899082191761
 31
0.0
  0
LINE
  5
3A9
  8
1
  6
CONTINUOUS
 62
     2
 10
-25.00000000001091
 20
43.79392658247161
 30
0.0
 11
-19.0
 21
43.79392658247161
 31
0.0
  0
LINE
  5
3AA
  8
1
  6
CONTINUOUS
 62
     2
 10
-33.5
 20
43.79392658247161
 30
0.0
 11
-31.0
 21
43.79392658247161
 31
0.0
  0
LINE
  5
3AB
  8
1
  6
CONTINUOUS
 62
     2
 10
-31.00000000001091
 20
43.79392658247161
 30
0.0
 11
-31.0
 21
43.79392658247161
 31
0.0
  0
LINE
  5
3AC
  8
1
  6
CONTINUOUS
 62
     2
 10
-25.00000000001091
 20
41.79392658246979
 30
0.0
 11
-25.00000000001091
 21
41.79392658247161
 31
0.0
  0
LINE
  5
3AD
  8
1
  6
CONTINUOUS
 62
     2
 10
-32.00000000001091
 20
37.48310685425713
 30
0.0
 11
-32.00000000001091
 21
41.79392658247161
 31
0.0
  0
LINE
  5
3AE
  8
1
  6
CONTINUOUS
 62
     2
 10
-35.00000000001091
 20
37.48310685425713
 30
0.0
 11
-35.00000000001091
 21
41.79392658247161
 31
0.0
  0
LINE
  5
3AF
  8
1
  6
CONTINUOUS
 62
     2
 10
-35.00000000001091
 20
41.79392658247161
 30
0.0
 11
-35.00000000001091
 21
41.79392658246979
 31
0.0
  0
LINE
  5
3B0
  8
1
  6
CONTINUOUS
 62
     2
 10
-32.00000000001091
 20
41.79392658247161
 30
0.0
 11
-32.00000000001091
 21
41.79392658246979
 31
0.0
  0
LINE
  5
3B1
  8
1
  6
CONTINUOUS
 62
     2
 10
-15.00000000001091
 20
41.79392658246979
 30
0.0
 11
-15.00000000001091
 21
37.48310685425713
 31
0.0
  0
LINE
  5
3B2
  8
1
  6
CONTINUOUS
 62
     2
 10
-18.00000000001091
 20
41.79392658246979
 30
0.0
 11
-18.00000000001091
 21
37.48310685425713
 31
0.0
  0
LINE
  5
3B3
  8
1
  6
CONTINUOUS
 62
     2
 10
-25.0
 20
37.48310685425713
 30
0.0
 11
-25.00000000001091
 21
37.48310685425713
 31
0.0
  0
LINE
  5
3B4
  8
1
  6
CONTINUOUS
 62
     2
 10
-16.50000000001091
 20
36.79191740082388
 30
0.0
 11
-25.00000000001091
 21
36.79191740082388
 31
0.0
  0
LINE
  5
3B5
  8
1
  6
CONTINUOUS
 62
     2
 10
-31.00000000001091
 20
36.79191740082388
 30
0.0
 11
-33.5
 21
36.79191740082388
 31
0.0
  0
LINE
  5
3B6
  8
1
  6
CONTINUOUS
 62
     2
 10
-25.00000000001091
 20
41.79392658247161
 30
0.0
 11
-25.0
 21
37.48310685425713
 31
0.0
  0
LINE
  5
3B7
  8
1
  6
CONTINUOUS
 62
     2
 10
-25.0
 20
36.79191740082388
 30
0.0
 11
-31.00000000001091
 21
36.79191740082388
 31
0.0
  0
LINE
  5
3B8
  8
1
  6
CONTINUOUS
 62
     2
 10
-35.00000000001091
 20
41.79392658247161
 30
0.0
 11
-35.00000000001091
 21
43.10273712903836
 31
0.0
  0
LINE
  5
3B9
  8
1
  6
CONTINUOUS
 62
     2
 10
-32.00000000001091
 20
41.79392658247161
 30
0.0
 11
-32.00000000001091
 21
43.10273712903836
 31
0.0
  0
LINE
  5
3BA
  8
1
  6
CONTINUOUS
 62
     2
 10
-15.00000000001091
 20
43.10273712903836
 30
0.0
 11
-15.00000000001091
 21
41.79392658247161
 31
0.0
  0
LINE
  5
3BB
  8
1
  6
CONTINUOUS
 62
     2
 10
-18.00000000001091
 20
43.10273712903836
 30
0.0
 11
-18.00000000001091
 21
41.79392658247161
 31
0.0
  0
LINE
  5
3BC
  8
1
  6
CONTINUOUS
 62
     2
 10
-25.00000000001091
 20
43.10273712903836
 30
0.0
 11
-25.0
 21
43.10273712903836
 31
0.0
  0
LINE
  5
3BD
  8
1
  6
CONTINUOUS
 62
     2
 10
-19.0
 20
43.79392658247161
 30
0.0
 11
-16.50000000001091
 21
43.79392658247161
 31
0.0
  0
LINE
  5
3BE
  8
1
  6
CONTINUOUS
 62
     2
 10
-31.0
 20
43.79392658247161
 30
0.0
 11
-31.00000000001091
 21
43.79392658247161
 31
0.0
  0
LINE
  5
3BF
  8
1
  6
CONTINUOUS
 62
     2
 10
-25.0
 20
43.10273712903836
 30
0.0
 11
-25.00000000001091
 21
41.79392658247161
 31
0.0
  0
LINE
  5
3C0
  8
1
  6
CONTINUOUS
 62
     2
 10
-31.0
 20
43.79392658247161
 30
0.0
 11
-25.0
 21
43.79392658247161
 31
0.0
  0
LINE
  5
3C1
  8
1
  6
DOT_CENTER
 62
     2
 10
-25.0
 20
228.0
 30
0.0
 11
-25.0
 21
0.0
 31
0.0
  0
LINE
  5
3C2
  8
1
  6
CONTINUOUS
 62
     2
 10
-20.5
 20
132.2909128100018
 30
0.0
 11
-20.5
 21
157.2899082191761
 31
0.0
  0
LINE
  5
3C3
  8
1
  6
CONTINUOUS
 62
     2
 10
-29.5
 20
132.2909128100018
 30
0.0
 11
-29.5
 21
157.2899082191761
 31
0.0
  0
LINE
  5
3C4
  8
1
  6
CONTINUOUS
 62
     2
 10
-25.00000000001091
 20
36.79191740082388
 30
0.0
 11
-16.50000000001091
 21
36.79191740082388
 31
0.0
  0
LINE
  5
3C5
  8
1
  6
CONTINUOUS
 62
     7
 10
-19.0
 20
132.2909128100018
 30
0.0
 11
-19.0
 21
157.2899082191761
 31
0.0
  0
LINE
  5
3C6
  8
1
  6
CONTINUOUS
 62
     2
 10
-33.5
 20
36.79191740082388
 30
0.0
 11
-31.0
 21
36.79191740082388
 31
0.0
  0
LINE
  5
3C7
  8
1
  6
CONTINUOUS
 62
     2
 10
-31.00000000001091
 20
36.79191740082388
 30
0.0
 11
-31.0
 21
36.79191740082388
 31
0.0
  0
LINE
  5
3C8
  8
1
  6
CONTINUOUS
 62
     7
 10
-31.0
 20
132.2909128100018
 30
0.0
 11
-31.0
 21
157.2899082191761
 31
0.0
  0
LINE
  5
3C9
  8
1
  6
CONTINUOUS
 62
     2
 10
-25.00000000001091
 20
34.79191740082206
 30
0.0
 11
-25.00000000001091
 21
34.79191740082388
 31
0.0
  0
LINE
  5
3CA
  8
1
  6
CONTINUOUS
 62
     2
 10
-32.00000000001091
 20
30.48109767260939
 30
0.0
 11
-32.00000000001091
 21
34.79191740082388
 31
0.0
  0
LINE
  5
3CB
  8
1
  6
CONTINUOUS
 62
     2
 10
-35.00000000001091
 20
30.48109767260939
 30
0.0
 11
-35.00000000001091
 21
34.79191740082388
 31
0.0
  0
LINE
  5
3CC
  8
1
  6
CONTINUOUS
 62
     2
 10
-35.00000000001091
 20
34.79191740082388
 30
0.0
 11
-35.00000000001091
 21
34.79191740082206
 31
0.0
  0
LINE
  5
3CD
  8
1
  6
CONTINUOUS
 62
     2
 10
-32.00000000001091
 20
34.79191740082388
 30
0.0
 11
-32.00000000001091
 21
34.79191740082206
 31
0.0
  0
LINE
  5
3CE
  8
1
  6
CONTINUOUS
 62
     2
 10
-15.00000000001091
 20
34.79191740082206
 30
0.0
 11
-15.00000000001091
 21
30.48109767260939
 31
0.0
  0
LINE
  5
3CF
  8
1
  6
CONTINUOUS
 62
     2
 10
-18.00000000001091
 20
34.79191740082206
 30
0.0
 11
-18.00000000001091
 21
30.48109767260939
 31
0.0
  0
LINE
  5
3D0
  8
1
  6
CONTINUOUS
 62
     2
 10
-25.0
 20
30.48109767260939
 30
0.0
 11
-25.00000000001091
 21
30.48109767260939
 31
0.0
  0
LINE
  5
3D1
  8
1
  6
CONTINUOUS
 62
     2
 10
-16.50000000001091
 20
29.78990821917614
 30
0.0
 11
-25.00000000001091
 21
29.78990821917614
 31
0.0
  0
LINE
  5
3D2
  8
1
  6
CONTINUOUS
 62
     2
 10
-31.00000000001091
 20
29.78990821917614
 30
0.0
 11
-33.5
 21
29.78990821917614
 31
0.0
  0
LINE
  5
3D3
  8
1
  6
CONTINUOUS
 62
     2
 10
-25.00000000001091
 20
34.79191740082388
 30
0.0
 11
-25.0
 21
30.48109767260939
 31
0.0
  0
LINE
  5
3D4
  8
1
  6
CONTINUOUS
 62
     2
 10
-25.0
 20
29.78990821917614
 30
0.0
 11
-31.00000000001091
 21
29.78990821917614
 31
0.0
  0
LINE
  5
3D5
  8
1
  6
CONTINUOUS
 62
     2
 10
-35.00000000001091
 20
34.79191740082388
 30
0.0
 11
-35.00000000001091
 21
36.10072794739062
 31
0.0
  0
LINE
  5
3D6
  8
1
  6
CONTINUOUS
 62
     2
 10
-32.00000000001091
 20
34.79191740082388
 30
0.0
 11
-32.00000000001091
 21
36.10072794739062
 31
0.0
  0
LINE
  5
3D7
  8
1
  6
CONTINUOUS
 62
     2
 10
-15.00000000001091
 20
36.10072794739062
 30
0.0
 11
-15.00000000001091
 21
34.79191740082388
 31
0.0
  0
LINE
  5
3D8
  8
1
  6
CONTINUOUS
 62
     2
 10
-18.00000000001091
 20
36.10072794739062
 30
0.0
 11
-18.00000000001091
 21
34.79191740082388
 31
0.0
  0
LINE
  5
3D9
  8
1
  6
CONTINUOUS
 62
     2
 10
-25.00000000001091
 20
36.10072794739062
 30
0.0
 11
-25.0
 21
36.10072794739062
 31
0.0
  0
LINE
  5
3DA
  8
1
  6
CONTINUOUS
 62
     2
 10
-31.0
 20
36.79191740082388
 30
0.0
 11
-31.00000000001091
 21
36.79191740082388
 31
0.0
  0
LINE
  5
3DB
  8
1
  6
CONTINUOUS
 62
     2
 10
-25.0
 20
36.10072794739062
 30
0.0
 11
-25.00000000001091
 21
34.79191740082388
 31
0.0
  0
LINE
  5
3DC
  8
1
  6
CONTINUOUS
 62
     2
 10
-31.0
 20
36.79191740082388
 30
0.0
 11
-25.0
 21
36.79191740082388
 31
0.0
  0
LINE
  5
3DD
  8
1
  6
CONTINUOUS
 62
     7
 10
-44.5
 20
8.291917400823877
 30
0.0
 11
-5.5
 21
8.291917400823877
 31
0.0
  0
LINE
  5
3DE
  8
1
  6
CONTINUOUS
 62
     7
 10
-5.5
 20
11.29191740082388
 30
0.0
 11
-5.5
 21
8.291917400823877
 31
0.0
  0
LINE
  5
3DF
  8
1
  6
CONTINUOUS
 62
     7
 10
-5.0
 20
11.29191740082388
 30
0.0
 11
-44.5
 21
11.29191740082388
 31
0.0
  0
LINE
  5
3E0
  8
1
  6
CONTINUOUS
 62
     7
 10
-44.5
 20
8.291917400823877
 30
0.0
 11
-44.5
 21
11.29191740082388
 31
0.0
  0
LINE
  5
3E1
  8
1
  6
CONTINUOUS
 62
     2
 10
-5.0
 20
14.29191740082388
 30
0.0
 11
-45.0
 21
14.29191740082388
 31
0.0
  0
LINE
  5
3E2
  8
1
  6
CONTINUOUS
 62
     7
 10
-15.26669058630068
 20
28.29191740082388
 30
0.0
 11
-5.0
 21
14.29191740082388
 31
0.0
  0
LINE
  5
3E3
  8
1
  6
CONTINUOUS
 62
     7
 10
-5.0
 20
14.29191740082388
 30
0.0
 11
-5.0
 21
11.29191740082388
 31
0.0
  0
LINE
  5
3E4
  8
1
  6
CONTINUOUS
 62
     7
 10
-44.5
 20
11.29191740082388
 30
0.0
 11
-45.0
 21
11.29191740082388
 31
0.0
  0
LINE
  5
3E5
  8
1
  6
CONTINUOUS
 62
     7
 10
-45.0
 20
11.29191740082388
 30
0.0
 11
-45.0
 21
14.29191740082388
 31
0.0
  0
LINE
  5
3E6
  8
1
  6
CONTINUOUS
 62
     7
 10
-45.0
 20
14.29191740082388
 30
0.0
 11
-35.00000000001091
 21
28.29191740082388
 31
0.0
  0
LINE
  5
3E7
  8
1
  6
CONTINUOUS
 62
     7
 10
-27.97431033556131
 20
28.29191740082388
 30
0.0
 11
-31.45880422556002
 21
28.29191740082388
 31
0.0
  0
LINE
  5
3E8
  8
1
  6
CONTINUOUS
 62
     7
 10
-27.97431033556131
 20
28.29191740082388
 30
0.0
 11
-31.45880422556002
 21
28.29191740082388
 31
0.0
  0
LINE
  5
3E9
  8
1
  6
CONTINUOUS
 62
     7
 10
-25.0
 20
28.29191740082388
 30
0.0
 11
-27.97431033556131
 21
28.29191740082388
 31
0.0
  0
LINE
  5
3EA
  8
1
  6
CONTINUOUS
 62
     7
 10
-15.26669058630068
 20
28.29191740082388
 30
0.0
 11
-27.97431033556131
 21
28.29191740082388
 31
0.0
  0
LINE
  5
3EB
  8
1
  6
CONTINUOUS
 62
     7
 10
-15.73330941372114
 20
28.29191740082388
 30
0.0
 11
-25.00000000001091
 21
28.29191740082388
 31
0.0
  0
LINE
  5
3EC
  8
1
  6
CONTINUOUS
 62
     7
 10
-31.45880422556002
 20
28.29191740082388
 30
0.0
 11
-35.00000000001091
 21
28.29191740082388
 31
0.0
  0
LINE
  5
3ED
  8
1
  6
CONTINUOUS
 62
     7
 10
-31.45880422556002
 20
28.29191740082388
 30
0.0
 11
-34.00000000001091
 21
28.29191740082388
 31
0.0
  0
ARC
  5
3EE
  8
1
  6
CONTINUOUS
 62
     2
 10
-21.50000000001091
 20
166.4970386212062
 30
0.0
 40
9.207130402030177
 50
247.6576354034192
 51
292.3423645965808
  0
ARC
  5
3EF
  8
1
  6
CONTINUOUS
 62
     2
 10
-16.50000000001091
 20
159.2631319471911
 30
0.0
 40
1.973223728116593
 50
220.5201641439902
 51
270.0
  0
ARC
  5
3F0
  8
1
  6
CONTINUOUS
 62
     2
 10
-16.50000000001091
 20
159.2631319471911
 30
0.0
 40
1.973223728015
 50
270.0
 51
319.4798358560145
  0
ARC
  5
3F1
  8
1
  6
CONTINUOUS
 62
     2
 10
-28.5
 20
166.4970386212062
 30
0.0
 40
9.207130402030177
 50
247.6576354034191
 51
292.3423645965808
  0
ARC
  5
3F2
  8
1
  6
CONTINUOUS
 62
     2
 10
-33.5
 20
159.2631319471911
 30
0.0
 40
1.973223728015
 50
270.0
 51
319.4798358560137
  0
ARC
  5
3F3
  8
1
  6
CONTINUOUS
 62
     2
 10
-33.5
 20
159.2631319471911
 30
0.0
 40
1.973223728116593
 50
220.5201641439902
 51
270.0
  0
ARC
  5
3F4
  8
1
  6
CONTINUOUS
 62
     2
 10
-21.50000000001091
 20
155.0847869987938
 30
0.0
 40
9.207130402030177
 50
67.65763540341918
 51
112.3423645965809
  0
ARC
  5
3F5
  8
1
  6
CONTINUOUS
 62
     2
 10
-16.50000000001091
 20
162.3186936728089
 30
0.0
 40
1.973223728015
 50
90.0
 51
139.4798358560151
  0
ARC
  5
3F6
  8
1
  6
CONTINUOUS
 62
     2
 10
-16.50000000001091
 20
162.3186936728089
 30
0.0
 40
1.973223728116593
 50
40.52016414398949
 51
90.0
  0
ARC
  5
3F7
  8
1
  6
CONTINUOUS
 62
     2
 10
-28.5
 20
155.0847869987938
 30
0.0
 40
9.207130402030177
 50
67.65763540341918
 51
112.3423645965808
  0
ARC
  5
3F8
  8
1
  6
CONTINUOUS
 62
     2
 10
-33.5
 20
162.3186936728089
 30
0.0
 40
1.973223728116593
 50
40.52016414398943
 51
90.0
  0
ARC
  5
3F9
  8
1
  6
CONTINUOUS
 62
     2
 10
-33.5
 20
162.3186936728089
 30
0.0
 40
1.973223728015
 50
90.0
 51
139.4798358560147
  0
ARC
  5
3FA
  8
1
  6
CONTINUOUS
 62
     2
 10
-21.50000000001091
 20
45.99904780285397
 30
0.0
 40
9.207130402030177
 50
247.6576354034191
 51
292.3423645965808
  0
ARC
  5
3FB
  8
1
  6
CONTINUOUS
 62
     2
 10
-16.50000000001091
 20
38.76514112883888
 30
0.0
 40
1.973223728116593
 50
220.5201641439899
 51
270.0
  0
ARC
  5
3FC
  8
1
  6
CONTINUOUS
 62
     2
 10
-16.50000000001091
 20
38.76514112883888
 30
0.0
 40
1.973223728015
 50
270.0
 51
319.4798358560146
  0
ARC
  5
3FD
  8
1
  6
CONTINUOUS
 62
     2
 10
-28.5
 20
45.99904780285397
 30
0.0
 40
9.207130402030177
 50
247.6576354034191
 51
292.3423645965808
  0
ARC
  5
3FE
  8
1
  6
CONTINUOUS
 62
     2
 10
-33.5
 20
38.76514112883888
 30
0.0
 40
1.973223728015
 50
270.0
 51
319.4798358560147
  0
ARC
  5
3FF
  8
1
  6
CONTINUOUS
 62
     2
 10
-33.5
 20
38.76514112883888
 30
0.0
 40
1.973223728116593
 50
220.5201641439899
 51
270.0
  0
ARC
  5
400
  8
1
  6
CONTINUOUS
 62
     2
 10
-21.50000000001091
 20
34.58679618044152
 30
0.0
 40
9.207130402030177
 50
67.65763540341918
 51
112.3423645965808
  0
ARC
  5
401
  8
1
  6
CONTINUOUS
 62
     2
 10
-16.50000000001091
 20
41.82070285445661
 30
0.0
 40
1.973223728015
 50
90.0
 51
139.4798358560147
  0
ARC
  5
402
  8
1
  6
CONTINUOUS
 62
     2
 10
-16.50000000001091
 20
41.82070285445661
 30
0.0
 40
1.973223728116593
 50
40.52016414398934
 51
90.0
  0
ARC
  5
403
  8
1
  6
CONTINUOUS
 62
     2
 10
-28.5
 20
34.58679618044152
 30
0.0
 40
9.207130402030177
 50
67.65763540341933
 51
112.3423645965809
  0
ARC
  5
404
  8
1
  6
CONTINUOUS
 62
     2
 10
-33.5
 20
41.82070285445661
 30
0.0
 40
1.973223728116593
 50
40.52016414398934
 51
90.0
  0
ARC
  5
405
  8
1
  6
CONTINUOUS
 62
     2
 10
-33.5
 20
41.82070285445661
 30
0.0
 40
1.973223728015
 50
90.0
 51
139.4798358560146
  0
ARC
  5
406
  8
1
  6
CONTINUOUS
 62
     2
 10
-21.50000000001091
 20
38.99703862120623
 30
0.0
 40
9.207130402030177
 50
247.6576354034191
 51
292.3423645965808
  0
ARC
  5
407
  8
1
  6
CONTINUOUS
 62
     2
 10
-16.50000000001091
 20
31.76313194719114
 30
0.0
 40
1.973223728116593
 50
220.5201641439894
 51
270.0
  0
ARC
  5
408
  8
1
  6
CONTINUOUS
 62
     2
 10
-16.50000000001091
 20
31.76313194719114
 30
0.0
 40
1.973223728015
 50
270.0
 51
319.4798358560145
  0
ARC
  5
409
  8
1
  6
CONTINUOUS
 62
     2
 10
-28.5
 20
38.99703862120623
 30
0.0
 40
9.207130402030177
 50
247.6576354034191
 51
292.3423645965808
  0
ARC
  5
40A
  8
1
  6
CONTINUOUS
 62
     2
 10
-33.5
 20
31.76313194719114
 30
0.0
 40
1.973223728015
 50
270.0
 51
319.4798358560145
  0
ARC
  5
40B
  8
1
  6
CONTINUOUS
 62
     2
 10
-33.5
 20
31.76313194719114
 30
0.0
 40
1.973223728116593
 50
220.5201641439896
 51
270.0
  0
ARC
  5
40C
  8
1
  6
CONTINUOUS
 62
     2
 10
-21.50000000001091
 20
27.58478699879379
 30
0.0
 40
9.207130402030177
 50
67.65763540341926
 51
112.3423645965808
  0
ARC
  5
40D
  8
1
  6
CONTINUOUS
 62
     2
 10
-16.50000000001091
 20
34.81869367280888
 30
0.0
 40
1.973223728015
 50
90.0
 51
139.4798358560146
  0
ARC
  5
40E
  8
1
  6
CONTINUOUS
 62
     2
 10
-16.50000000001091
 20
34.81869367280888
 30
0.0
 40
1.973223728116593
 50
40.52016414398963
 51
90.0
  0
ARC
  5
40F
  8
1
  6
CONTINUOUS
 62
     2
 10
-28.5
 20
27.58478699879379
 30
0.0
 40
9.207130402030177
 50
67.65763540341926
 51
112.3423645965808
  0
ARC
  5
410
  8
1
  6
CONTINUOUS
 62
     2
 10
-33.5
 20
34.81869367280888
 30
0.0
 40
1.973223728116593
 50
40.52016414398905
 51
90.0
  0
ARC
  5
411
  8
1
  6
CONTINUOUS
 62
     2
 10
-33.5
 20
34.81869367280888
 30
0.0
 40
1.973223728015
 50
90.0
 51
139.4798358560147
  0
ARC
  5
412
  8
1
  6
CONTINUOUS
 62
     7
 10
-19.99593150715009
 20
29.66441291056617
 30
0.0
 40
1.999999994055714
 50
316.6661846631202
 51
3.655213458877181
  0
ARC
  5
413
  8
1
  6
CONTINUOUS
 62
     7
 10
-30.00406849287174
 20
29.66441291056617
 30
0.0
 40
1.999999994056685
 50
176.3447865411232
 51
223.3338153368801
  0
ENDBLK
  5
415
  8
0
  0
BLOCK
  8
0
  2
_12__14
 70
     0
 10
0.0
 20
0.0
 30
0.0
  3
_12__14
  1

  0
LINE
  5
418
  8
1
  6
DOT_CENTER
 62
     2
 10
0.0
 20
35.35065166039931
 30
0.0
 11
74.58855730179857
 21
35.35065166039931
 31
0.0
  0
LINE
  5
419
  8
1
  6
DOT_CENTER
 62
     2
 10
37.17606678175071
 20
70.04838424873014
 30
0.0
 11
37.17606678175071
 21
0.0
 31
0.0
  0
ARC
  5
41A
  8
1
  6
CONTINUOUS
 62
     7
 10
204.437193733309
 20
131.9189083308447
 30
0.0
 40
165.0000000000294
 50
205.4531208609719
 51
214.5468791390301
  0
ARC
  5
41B
  8
1
  6
CONTINUOUS
 62
     7
 10
37.17606678185984
 20
35.35065166058484
 30
0.0
 40
31.49999999978589
 50
54.53497620005705
 51
65.46502379995317
  0
ARC
  5
41C
  8
1
  6
CONTINUOUS
 62
     7
 10
37.17606678199081
 20
228.4871650012856
 30
0.0
 40
165.0000000000292
 50
265.4531208609642
 51
274.5468791390219
  0
ARC
  5
41D
  8
1
  6
CONTINUOUS
 62
     7
 10
37.17606678185984
 20
35.35065166058484
 30
0.0
 40
31.4999999997871
 50
114.5349762000454
 51
125.4650237999346
  0
ARC
  5
41E
  8
1
  6
CONTINUOUS
 62
     7
 10
-130.0850601694619
 20
131.9189083310866
 30
0.0
 40
165.0000000000334
 50
325.4531208609519
 51
334.5468791390105
  0
ARC
  5
41F
  8
1
  6
CONTINUOUS
 62
     7
 10
37.17606678185984
 20
35.35065166058484
 30
0.0
 40
31.49999999979267
 50
174.5349762000348
 51
185.4650237999185
  0
ARC
  5
420
  8
1
  6
CONTINUOUS
 62
     7
 10
-130.0850601696511
 20
-61.21760500958408
 30
0.0
 40
165.000000000034
 50
25.45312086094006
 51
34.54687913899908
  0
ARC
  5
421
  8
1
  6
CONTINUOUS
 62
     7
 10
37.17606678185984
 20
35.35065166058484
 30
0.0
 40
31.49999999978829
 50
234.5349762000196
 51
245.4650237998901
  0
ARC
  5
422
  8
1
  6
CONTINUOUS
 62
     7
 10
37.17606678160882
 20
-157.785861680115
 30
0.0
 40
165.0000000000292
 50
85.4531208609288
 51
94.54687913899025
  0
ARC
  5
423
  8
1
  6
CONTINUOUS
 62
     7
 10
37.17606678185984
 20
35.35065166058484
 30
0.0
 40
31.49999999978617
 50
294.5349762000097
 51
305.4650237998777
  0
ARC
  5
424
  8
1
  6
CONTINUOUS
 62
     7
 10
204.4371937331089
 20
-61.21760501000608
 30
0.0
 40
165.0000000000227
 50
145.4531208609194
 51
154.5468791389778
  0
ARC
  5
425
  8
1
  6
CONTINUOUS
 62
     7
 10
37.17606678185984
 20
35.35065166058484
 30
0.0
 40
31.49999999978354
 50
354.5349762
 51
5.465023799888446
  0
CIRCLE
  5
426
  8
1
  6
CONTINUOUS
 62
     2
 10
37.17606678175071
 20
35.37324058170816
 30
0.0
 40
26.72984082398762
  0
CIRCLE
  5
427
  8
1
  6
CONTINUOUS
 62
     2
 10
37.17606678175071
 20
35.35065166039567
 30
0.0
 40
17.0
  0
ENDBLK
  5
429
  8
0
  0
BLOCK
  8
0
  2
_12__15
 70
     0
 10
0.0
 20
0.0
 30
0.0
  3
_12__15
  1

  0
LINE
  5
42C
  8
1
  6
DOT_CENTER
 62
     2
 10
0.0
 20
37.17606678174889
 30
0.0
 11
70.04838424873014
 21
37.17606678174889
 31
0.0
  0
LINE
  5
42D
  8
1
  6
DOT_CENTER
 62
     2
 10
34.69773258833084
 20
0.0
 30
0.0
 11
34.69773258833084
 21
74.58855730180039
 31
0.0
  0
ARC
  5
42E
  8
1
  6
CONTINUOUS
 62
     7
 10
34.69773258814894
 20
37.17606678185439
 30
0.0
 40
31.49999999978518
 50
84.53497620000353
 51
95.46502379989005
  0
ARC
  5
42F
  8
1
  6
CONTINUOUS
 62
     7
 10
131.265989258729
 20
204.4371937331125
 30
0.0
 40
165.0000000000236
 50
235.4531208609235
 51
244.546879138981
  0
ARC
  5
430
  8
1
  6
CONTINUOUS
 62
     7
 10
34.69773258814894
 20
37.17606678185439
 30
0.0
 40
31.49999999977624
 50
24.53497620001812
 51
35.46502379989755
  0
ARC
  5
431
  8
1
  6
CONTINUOUS
 62
     7
 10
227.8342459288397
 20
37.17606678161064
 30
0.0
 40
165.0000000000304
 50
175.4531208609314
 51
184.5468791389899
  0
ARC
  5
432
  8
1
  6
CONTINUOUS
 62
     7
 10
34.69773258814894
 20
37.17606678185439
 30
0.0
 40
31.49999999977814
 50
324.5349762000085
 51
335.4650237999063
  0
ARC
  5
433
  8
1
  6
CONTINUOUS
 62
     7
 10
131.2659892583106
 20
-130.0850601696493
 30
0.0
 40
165.0000000000302
 50
115.4531208609424
 51
124.5468791389998
  0
ARC
  5
434
  8
1
  6
CONTINUOUS
 62
     7
 10
34.69773258814894
 20
37.17606678185439
 30
0.0
 40
31.49999999978776
 50
264.5349762000239
 51
275.4650237999095
  0
ARC
  5
435
  8
1
  6
CONTINUOUS
 62
     7
 10
-61.87052408236195
 20
-130.0850601694583
 30
0.0
 40
165.0000000000325
 50
55.4531208609502
 51
64.54687913900763
  0
ARC
  5
436
  8
1
  6
CONTINUOUS
 62
     7
 10
34.69773258814894
 20
37.17606678185439
 30
0.0
 40
31.49999999979041
 50
204.5349762000426
 51
215.4650237999284
  0
ARC
  5
437
  8
1
  6
CONTINUOUS
 62
     7
 10
-158.43878075256
 20
37.17606678199263
 30
0.0
 40
165.0000000000344
 50
355.4531208609617
 51
4.546879139020371
  0
ARC
  5
438
  8
1
  6
CONTINUOUS
 62
     7
 10
34.69773258814894
 20
37.17606678185439
 30
0.0
 40
31.49999999979287
 50
144.534976200062
 51
155.4650237999452
  0
ARC
  5
439
  8
1
  6
CONTINUOUS
 62
     7
 10
-61.87052408211093
 20
204.4371937333053
 30
0.0
 40
165.0000000000263
 50
295.4531208609696
 51
304.5468791390297
  0
CIRCLE
  5
43A
  8
1
  6
CONTINUOUS
 62
     2
 10
34.69773258833811
 20
37.17606678174889
 30
0.0
 40
17.0
  0
CIRCLE
  5
43B
  8
1
  6
CONTINUOUS
 62
     2
 10
34.67514366702017
 20
37.17606678174889
 30
0.0
 40
26.72984082399125
  0
ENDBLK
  5
43D
  8
0
  0
BLOCK
  8
0
  2
_12__16
 70
     0
 10
0.0
 20
0.0
 30
0.0
  3
_12__16
  1

  0
LINE
  5
440
  8
1
  6
DOT_CENTER
 62
     2
 10
34.69773258833084
 20
0.0
 30
0.0
 11
34.69773258833084
 21
74.58855730180039
 31
0.0
  0
LINE
  5
441
  8
1
  6
DOT_CENTER
 62
     2
 10
70.04838424873014
 20
37.41249052004969
 30
0.0
 11
0.0
 21
37.41249052004969
 31
0.0
  0
ARC
  5
442
  8
1
  6
CONTINUOUS
 62
     7
 10
-61.87052408211093
 20
-129.8486364315049
 30
0.0
 40
165.0000000000276
 50
55.45312086097046
 51
64.54687913903051
  0
ARC
  5
443
  8
1
  6
CONTINUOUS
 62
     7
 10
34.69773258814894
 20
37.412490519946
 30
0.0
 40
31.49999999979343
 50
204.5349762000546
 51
215.4650237999378
  0
ARC
  5
444
  8
1
  6
CONTINUOUS
 62
     7
 10
-158.43878075256
 20
37.41249051980776
 30
0.0
 40
165.0000000000303
 50
355.4531208609794
 51
4.546879139038307
  0
ARC
  5
445
  8
1
  6
CONTINUOUS
 62
     7
 10
34.69773258814894
 20
37.412490519946
 30
0.0
 40
31.49999999978865
 50
144.5349762000729
 51
155.4650237999589
  0
ARC
  5
446
  8
1
  6
CONTINUOUS
 62
     7
 10
-61.87052408236195
 20
204.6736174712587
 30
0.0
 40
165.0000000000331
 50
295.4531208609923
 51
304.5468791390498
  0
ARC
  5
447
  8
1
  6
CONTINUOUS
 62
     7
 10
34.69773258814894
 20
37.412490519946
 30
0.0
 40
31.49999999978611
 50
84.53497620009023
 51
95.46502379997646
  0
ARC
  5
448
  8
1
  6
CONTINUOUS
 62
     7
 10
131.2659892583106
 20
204.6736174714497
 30
0.0
 40
165.0000000000303
 50
235.4531208610002
 51
244.5468791390576
  0
ARC
  5
449
  8
1
  6
CONTINUOUS
 62
     7
 10
34.69773258814894
 20
37.412490519946
 30
0.0
 40
31.49999999978368
 50
24.53497620009557
 51
35.46502379999177
  0
ARC
  5
44A
  8
1
  6
CONTINUOUS
 62
     7
 10
227.8342459288397
 20
37.41249052018975
 30
0.0
 40
165.0000000000232
 50
175.4531208610104
 51
184.5468791390687
  0
ARC
  5
44B
  8
1
  6
CONTINUOUS
 62
     7
 10
34.69773258814894
 20
37.412490519946
 30
0.0
 40
31.49999999978212
 50
324.534976200101
 51
335.4650237999803
  0
ARC
  5
44C
  8
1
  6
CONTINUOUS
 62
     7
 10
131.265989258729
 20
-129.8486364313121
 30
0.0
 40
165.0000000000268
 50
115.4531208610186
 51
124.546879139077
  0
ARC
  5
44D
  8
1
  6
CONTINUOUS
 62
     7
 10
34.69773258814894
 20
37.412490519946
 30
0.0
 40
31.49999999978507
 50
264.53497620011
 51
275.4650237999963
  0
CIRCLE
  5
44E
  8
1
  6
CONTINUOUS
 62
     2
 10
34.67514366702017
 20
37.41249052004969
 30
0.0
 40
26.72984082398943
  0
CIRCLE
  5
44F
  8
1
  6
CONTINUOUS
 62
     2
 10
34.69773258833811
 20
37.41249052004969
 30
0.0
 40
17.0
  0
ENDBLK
  5
451
  8
0
  0
BLOCK
  8
0
  2
_11__17
 70
     0
 10
0.0
 20
0.0
 30
0.0
  3
_11__17
  1

  0
LINE
  5
454
  8
1
  6
DOT_CENTER
 62
     2
 10
-26.40097851274913
 20
35.0
 30
0.0
 11
-27.40097851274913
 21
35.0
 31
0.0
  0
LINE
  5
455
  8
1
  6
CONTINUOUS
 62
     7
 10
-47.64227473875144
 20
91.0
 30
0.0
 11
-45.99778062995028
 21
88.89247932886065
 31
0.0
  0
LINE
  5
456
  8
1
  6
CONTINUOUS
 62
     7
 10
-18.80417639555162
 20
88.89247932886065
 30
0.0
 11
-22.20737427835047
 21
88.89247932886065
 31
0.0
  0
LINE
  5
457
  8
1
  6
CONTINUOUS
 62
     7
 10
-17.15968228675047
 20
91.0
 30
0.0
 11
-53.40097851274913
 21
91.0
 31
0.0
  0
LINE
  5
458
  8
1
  6
CONTINUOUS
 62
     7
 10
-18.80417639555162
 20
88.89247932886065
 30
0.0
 11
-17.15968228675047
 21
91.0
 31
0.0
  0
LINE
  5
459
  8
1
  6
CONTINUOUS
 62
     7
 10
-22.20737427835047
 20
76.11660695809951
 30
0.0
 11
-17.40097851274913
 21
76.11660695809951
 31
0.0
  0
LINE
  5
45A
  8
1
  6
CONTINUOUS
 62
     7
 10
-51.42277294971063
 20
28.28533673589118
 30
0.0
 11
-43.72935043676989
 21
30.55189435989269
 31
0.0
  0
LINE
  5
45B
  8
1
  6
CONTINUOUS
 62
     7
 10
-43.20737427835047
 20
67.51950604220656
 30
0.0
 11
-43.20737427835047
 21
88.89247932886065
 31
0.0
  0
LINE
  5
45C
  8
1
  6
CONTINUOUS
 62
     7
 10
-51.99417084275046
 20
46.30630260661019
 30
0.0
 11
-58.35072598106126
 21
39.94974746830667
 31
0.0
  0
LINE
  5
45D
  8
1
  6
CONTINUOUS
 62
     7
 10
-22.20737427835047
 20
88.89247932886065
 30
0.0
 11
-43.20737427835047
 21
88.89247932886065
 31
0.0
  0
LINE
  5
45E
  8
1
  6
CONTINUOUS
 62
     7
 10
-43.20737427835047
 20
88.89247932886065
 30
0.0
 11
-49.40097851274913
 21
88.89247932886065
 31
0.0
  0
LINE
  5
45F
  8
1
  6
CONTINUOUS
 62
     7
 10
-22.20737427835047
 20
88.89247932886065
 30
0.0
 11
-22.20737427835047
 21
59.32902263464712
 31
0.0
  0
LINE
  5
460
  8
1
  6
CONTINUOUS
 62
     7
 10
-43.20737427835047
 20
88.89247932886065
 30
0.0
 11
-22.20737427835047
 21
88.89247932886065
 31
0.0
  0
LINE
  5
461
  8
1
  6
CONTINUOUS
 62
     7
 10
-15.40097851274913
 20
78.11660695809951
 30
0.0
 11
-15.40097851274913
 21
88.89247932886065
 31
0.0
  0
LINE
  5
462
  8
1
  6
CONTINUOUS
 62
     7
 10
-47.40097851274913
 20
76.11660695809951
 30
0.0
 11
-43.20737427835047
 21
76.11660695809951
 31
0.0
  0
LINE
  5
463
  8
1
  6
CONTINUOUS
 62
     7
 10
-49.40097851274913
 20
88.89247932886065
 30
0.0
 11
-49.40097851274913
 21
78.11660695809951
 31
0.0
  0
LINE
  5
464
  8
1
  6
CONTINUOUS
 62
     7
 10
-15.40097851274913
 20
88.89247932886065
 30
0.0
 11
-18.80417639555162
 21
88.89247932886065
 31
0.0
  0
LINE
  5
465
  8
1
  6
DOT_CENTER
 62
     2
 10
-27.40097851274913
 20
35.0
 30
0.0
 11
-82.53628379174916
 21
35.0
 31
0.0
  0
LINE
  5
466
  8
1
  6
DOT_CENTER
 62
     2
 10
-22.40530643655075
 20
35.0
 30
0.0
 11
-26.40097851274913
 21
35.0
 31
0.0
  0
LINE
  5
467
  8
1
  6
DOT_CENTER
 62
     2
 10
-53.40097851274913
 20
75.86628385782024
 30
0.0
 11
-53.40097851274913
 21
17.86628385782024
 31
0.0
  0
LINE
  5
468
  8
1
  6
DOT_CENTER
 62
     2
 10
-32.40097851274913
 20
106.0942886904304
 30
0.0
 11
-32.40097851274913
 21
48.0942886904304
 31
0.0
  0
LINE
  5
469
  8
1
  6
CONTINUOUS
 62
     7
 10
-53.40097851274913
 20
91.0
 30
0.0
 11
-53.40097851274913
 21
93.0
 31
0.0
  0
LINE
  5
46A
  8
1
  6
CONTINUOUS
 62
     7
 10
-53.40097851274913
 20
93.0
 30
0.0
 11
-11.40097851274913
 21
92.99999999999818
 31
0.0
  0
LINE
  5
46B
  8
1
  6
CONTINUOUS
 62
     7
 10
-53.40097851274913
 20
93.0
 30
0.0
 11
-39.40097851274913
 21
93.0
 31
0.0
  0
LINE
  5
46C
  8
1
  6
CONTINUOUS
 62
     7
 10
-17.15968228675047
 20
91.0
 30
0.0
 11
-11.40097851274913
 21
91.0
 31
0.0
  0
LINE
  5
46D
  8
1
  6
CONTINUOUS
 62
     7
 10
-11.40097851274913
 20
91.0
 30
0.0
 11
-11.40097851274913
 21
92.99999999999818
 31
0.0
  0
LINE
  5
46E
  8
1
  6
DOT_CENTER
 62
     2
 10
-18.40097851274913
 20
108.2464734671194
 30
0.0
 11
-18.40097851274913
 21
82.24647346711936
 31
0.0
  0
LINE
  5
46F
  8
1
  6
DOT_CENTER
 62
     2
 10
-46.40097851274913
 20
108.0260120968105
 30
0.0
 11
-46.40097851274913
 21
82.24647346711936
 31
0.0
  0
ARC
  5
470
  8
1
  6
CONTINUOUS
 62
     2
 10
-53.40097851274913
 20
35.0
 30
0.0
 40
27.00000000000066
 50
69.80284265689274
 51
0.0000000000000905
  0
ARC
  5
471
  8
1
  6
CONTINUOUS
 62
     2
 10
-53.40097851274913
 20
35.0
 30
0.0
 40
27.0
 50
0.0
 51
15.91925746122398
  0
ARC
  5
472
  8
1
  6
CONTINUOUS
 62
     2
 10
-53.40097851274913
 20
35.0
 30
0.0
 40
13.00000000000134
 50
77.57897039280002
 51
344.6357159921744
  0
ARC
  5
473
  8
1
  6
CONTINUOUS
 62
     2
 10
-53.40097851274913
 20
35.0
 30
0.0
 40
26.0
 50
0.0
 51
14.14392666271563
  0
ARC
  5
474
  8
1
  6
CONTINUOUS
 62
     2
 10
-53.40097851274913
 20
35.0
 30
0.0
 40
25.9999999999975
 50
69.59484222575972
 51
0.0000000000001096
  0
ARC
  5
475
  8
1
  6
CONTINUOUS
 62
     7
 10
-53.40097851274913
 20
35.0
 30
0.0
 40
34.99999999999866
 50
73.0674429121352
 51
0.0000000000001279
  0
ARC
  5
476
  8
1
  6
CONTINUOUS
 62
     7
 10
-53.40097851274913
 20
35.0
 30
0.0
 40
35.0
 50
0.0
 51
29.77845685797705
  0
ARC
  5
477
  8
1
  6
CONTINUOUS
 62
     7
 10
-53.40097851274913
 20
35.0
 30
0.0
 40
7.00000000000504
 50
135.0000000000315
 51
286.4154897745163
  0
ARC
  5
478
  8
1
  6
CONTINUOUS
 62
     7
 10
-47.40097851274913
 20
78.11660695809951
 30
0.0
 40
2.0
 50
179.9999999999996
 51
270.0
  0
ARC
  5
479
  8
1
  6
CONTINUOUS
 62
     7
 10
-17.40097851274913
 20
78.11660695809951
 30
0.0
 40
2.0
 50
270.0
 51
0.0
  0
ARC
  5
47A
  8
1
  6
CONTINUOUS
 62
     7
 10
-52.20737427835047
 20
59.32902263464712
 30
0.0
 40
30.00000000000133
 50
286.4154897744996
 51
0.0000000000000136
  0
ARC
  5
47B
  8
1
  6
CONTINUOUS
 62
     7
 10
-73.20737427835047
 20
67.51950604220656
 30
0.0
 40
30.00000000000249
 50
315.0000000000049
 51
359.9999999999999
  0
ENDBLK
  5
47D
  8
0
  0
BLOCK
  8
0
  2
_1__18
 70
     0
 10
0.0
 20
0.0
 30
0.0
  3
_1__18
  1

  0
LINE
  5
480
  8
1
  6
CONTINUOUS
 62
     7
 10
9.0
 20
15.0
 30
0.0
 11
8.0
 21
15.0
 31
0.0
  0
LINE
  5
481
  8
1
  6
CONTINUOUS
 62
     7
 10
31.0
 20
15.0
 30
0.0
 11
32.0
 21
15.0
 31
0.0
  0
LINE
  5
482
  8
1
  6
CONTINUOUS
 62
     7
 10
18.0
 20
15.0
 30
0.0
 11
22.0
 21
15.0
 31
0.0
  0
LINE
  5
483
  8
1
  6
CONTINUOUS
 62
     7
 10
8.0
 20
5.0
 30
0.0
 11
8.0
 21
15.0
 31
0.0
  0
LINE
  5
484
  8
1
  6
CONTINUOUS
 62
     7
 10
9.0
 20
15.0
 30
0.0
 11
9.0
 21
5.0
 31
0.0
  0
LINE
  5
485
  8
1
  6
CONTINUOUS
 62
     7
 10
18.0
 20
5.0
 30
0.0
 11
18.0
 21
15.0
 31
0.0
  0
LINE
  5
486
  8
1
  6
CONTINUOUS
 62
     7
 10
22.0
 20
15.0
 30
0.0
 11
22.0
 21
5.0
 31
0.0
  0
LINE
  5
487
  8
1
  6
CONTINUOUS
 62
     7
 10
31.0
 20
5.0
 30
0.0
 11
31.0
 21
15.0
 31
0.0
  0
LINE
  5
488
  8
1
  6
CONTINUOUS
 62
     7
 10
32.0
 20
15.0
 30
0.0
 11
32.0
 21
5.0
 31
0.0
  0
LINE
  5
489
  8
1
  6
CONTINUOUS
 62
     7
 10
31.5
 20
0.0
 30
0.0
 11
31.5
 21
5.0
 31
0.0
  0
LINE
  5
48A
  8
1
  6
CONTINUOUS
 62
     7
 10
8.5
 20
0.0
 30
0.0
 11
31.5
 21
0.0
 31
0.0
  0
LINE
  5
48B
  8
1
  6
CONTINUOUS
 62
     7
 10
8.5
 20
5.0
 30
0.0
 11
8.5
 21
0.0
 31
0.0
  0
LINE
  5
48C
  8
1
  6
CONTINUOUS
 62
     7
 10
31.5
 20
5.0
 30
0.0
 11
40.0
 21
5.0
 31
0.0
  0
LINE
  5
48D
  8
1
  6
CONTINUOUS
 62
     7
 10
8.5
 20
5.0
 30
0.0
 11
31.5
 21
5.0
 31
0.0
  0
LINE
  5
48E
  8
1
  6
CONTINUOUS
 62
     7
 10
8.5
 20
5.0
 30
0.0
 11
31.5
 21
5.0
 31
0.0
  0
LINE
  5
48F
  8
1
  6
CONTINUOUS
 62
     7
 10
40.0
 20
5.0
 30
0.0
 11
40.0
 21
15.0
 31
0.0
  0
LINE
  5
490
  8
1
  6
CONTINUOUS
 62
     7
 10
0.0
 20
5.0
 30
0.0
 11
8.5
 21
5.0
 31
0.0
  0
LINE
  5
491
  8
1
  6
CONTINUOUS
 62
     7
 10
0.0
 20
15.0
 30
0.0
 11
0.0
 21
5.0
 31
0.0
  0
LINE
  5
492
  8
1
  6
CONTINUOUS
 62
     7
 10
36.0
 20
19.0
 30
0.0
 11
4.0
 21
19.0
 31
0.0
  0
LINE
  5
493
  8
1
  6
DOT_CENTER
 62
     2
 10
20.0
 20
22.57189822624969
 30
0.0
 11
20.0
 21
0.0
 31
0.0
  0
ARC
  5
494
  8
1
  6
CONTINUOUS
 62
     7
 10
4.0
 20
15.0
 30
0.0
 40
4.0
 50
0.0
 51
90.0
  0
ARC
  5
495
  8
1
  6
CONTINUOUS
 62
     7
 10
13.0
 20
15.0
 30
0.0
 40
4.0
 50
90.0
 51
180.0000000000001
  0
ARC
  5
496
  8
1
  6
CONTINUOUS
 62
     7
 10
14.0
 20
15.0
 30
0.0
 40
4.0
 50
0.0
 51
90.0
  0
ARC
  5
497
  8
1
  6
CONTINUOUS
 62
     7
 10
26.0
 20
15.0
 30
0.0
 40
4.0
 50
90.0
 51
180.0000000000002
  0
ARC
  5
498
  8
1
  6
CONTINUOUS
 62
     7
 10
27.0
 20
15.0
 30
0.0
 40
4.0
 50
0.0000000000000254
 51
90.0
  0
ARC
  5
499
  8
1
  6
CONTINUOUS
 62
     7
 10
36.0
 20
15.0
 30
0.0
 40
4.0
 50
90.0
 51
180.0000000000002
  0
ARC
  5
49A
  8
1
  6
CONTINUOUS
 62
     7
 10
4.0
 20
15.0
 30
0.0
 40
4.0
 50
90.0
 51
180.0000000000001
  0
ARC
  5
49B
  8
1
  6
CONTINUOUS
 62
     7
 10
36.0
 20
15.0
 30
0.0
 40
4.0
 50
0.0000000000000254
 51
90.0
  0
ENDBLK
  5
49D
  8
0
  0
BLOCK
  8
0
  2
_11__19
 70
     0
 10
0.0
 20
0.0
 30
0.0
  3
_11__19
  1

  0
LINE
  5
4A0
  8
1
  6
DOT_CENTER
 62
     2
 10
46.40097851275277
 20
82.24647346711936
 30
0.0
 11
46.40097851275277
 21
108.0260120968105
 31
0.0
  0
LINE
  5
4A1
  8
1
  6
DOT_CENTER
 62
     2
 10
18.40097851275277
 20
82.24647346711936
 30
0.0
 11
18.40097851275277
 21
108.2464734671194
 31
0.0
  0
LINE
  5
4A2
  8
1
  6
CONTINUOUS
 62
     7
 10
11.40097851275277
 20
92.99999999999818
 30
0.0
 11
11.40097851275277
 21
91.0
 31
0.0
  0
LINE
  5
4A3
  8
1
  6
CONTINUOUS
 62
     7
 10
11.40097851275277
 20
91.0
 30
0.0
 11
17.15968228675047
 21
91.0
 31
0.0
  0
LINE
  5
4A4
  8
1
  6
CONTINUOUS
 62
     7
 10
39.40097851275277
 20
93.0
 30
0.0
 11
53.40097851275277
 21
93.0
 31
0.0
  0
LINE
  5
4A5
  8
1
  6
CONTINUOUS
 62
     7
 10
11.40097851275277
 20
92.99999999999818
 30
0.0
 11
53.40097851275277
 21
93.0
 31
0.0
  0
LINE
  5
4A6
  8
1
  6
CONTINUOUS
 62
     7
 10
53.40097851275277
 20
93.0
 30
0.0
 11
53.40097851275277
 21
91.0
 31
0.0
  0
LINE
  5
4A7
  8
1
  6
DOT_CENTER
 62
     2
 10
32.40097851275277
 20
48.0942886904304
 30
0.0
 11
32.40097851275277
 21
106.0942886904304
 31
0.0
  0
LINE
  5
4A8
  8
1
  6
DOT_CENTER
 62
     2
 10
53.40097851275277
 20
17.86628385782024
 30
0.0
 11
53.40097851275277
 21
75.86628385782024
 31
0.0
  0
LINE
  5
4A9
  8
1
  6
DOT_CENTER
 62
     2
 10
26.40097851275277
 20
35.0
 30
0.0
 11
22.40530643655075
 21
35.0
 31
0.0
  0
LINE
  5
4AA
  8
1
  6
DOT_CENTER
 62
     2
 10
82.5362837917528
 20
35.0
 30
0.0
 11
27.40097851275277
 21
35.0
 31
0.0
  0
LINE
  5
4AB
  8
1
  6
CONTINUOUS
 62
     7
 10
18.80417639555162
 20
88.89247932886065
 30
0.0
 11
15.40097851275277
 21
88.89247932886065
 31
0.0
  0
LINE
  5
4AC
  8
1
  6
CONTINUOUS
 62
     7
 10
49.40097851275277
 20
78.11660695809951
 30
0.0
 11
49.40097851275277
 21
88.89247932886065
 31
0.0
  0
LINE
  5
4AD
  8
1
  6
CONTINUOUS
 62
     7
 10
43.20737427835047
 20
76.11660695809951
 30
0.0
 11
47.40097851275277
 21
76.11660695809951
 31
0.0
  0
LINE
  5
4AE
  8
1
  6
CONTINUOUS
 62
     7
 10
15.40097851275277
 20
88.89247932886065
 30
0.0
 11
15.40097851275277
 21
78.11660695809951
 31
0.0
  0
LINE
  5
4AF
  8
1
  6
CONTINUOUS
 62
     7
 10
22.20737427835047
 20
88.89247932886065
 30
0.0
 11
43.20737427835047
 21
88.89247932886065
 31
0.0
  0
LINE
  5
4B0
  8
1
  6
CONTINUOUS
 62
     7
 10
22.20737427835047
 20
59.32902263464712
 30
0.0
 11
22.20737427835047
 21
88.89247932886065
 31
0.0
  0
LINE
  5
4B1
  8
1
  6
CONTINUOUS
 62
     7
 10
49.40097851275277
 20
88.89247932886065
 30
0.0
 11
43.20737427835047
 21
88.89247932886065
 31
0.0
  0
LINE
  5
4B2
  8
1
  6
CONTINUOUS
 62
     7
 10
43.20737427835047
 20
88.89247932886065
 30
0.0
 11
22.20737427835047
 21
88.89247932886065
 31
0.0
  0
LINE
  5
4B3
  8
1
  6
CONTINUOUS
 62
     7
 10
58.35072598106126
 20
39.94974746830667
 30
0.0
 11
51.99417084275046
 21
46.30630260661019
 31
0.0
  0
LINE
  5
4B4
  8
1
  6
CONTINUOUS
 62
     7
 10
43.20737427835047
 20
88.89247932886065
 30
0.0
 11
43.20737427835047
 21
67.51950604220656
 31
0.0
  0
LINE
  5
4B5
  8
1
  6
CONTINUOUS
 62
     7
 10
43.72935043676989
 20
30.55189435989269
 30
0.0
 11
51.42277294971063
 21
28.28533673589118
 31
0.0
  0
LINE
  5
4B6
  8
1
  6
CONTINUOUS
 62
     7
 10
17.40097851275277
 20
76.11660695809951
 30
0.0
 11
22.20737427835047
 21
76.11660695809951
 31
0.0
  0
LINE
  5
4B7
  8
1
  6
CONTINUOUS
 62
     7
 10
17.15968228675047
 20
91.0
 30
0.0
 11
18.80417639555162
 21
88.89247932886065
 31
0.0
  0
LINE
  5
4B8
  8
1
  6
CONTINUOUS
 62
     7
 10
53.40097851275277
 20
91.0
 30
0.0
 11
17.15968228675047
 21
91.0
 31
0.0
  0
LINE
  5
4B9
  8
1
  6
CONTINUOUS
 62
     7
 10
22.20737427835047
 20
88.89247932886065
 30
0.0
 11
18.80417639555162
 21
88.89247932886065
 31
0.0
  0
LINE
  5
4BA
  8
1
  6
CONTINUOUS
 62
     7
 10
45.99778062995028
 20
88.89247932886065
 30
0.0
 11
47.64227473875144
 21
91.0
 31
0.0
  0
LINE
  5
4BB
  8
1
  6
DOT_CENTER
 62
     2
 10
27.40097851275277
 20
35.0
 30
0.0
 11
26.40097851275277
 21
35.0
 31
0.0
  0
ARC
  5
4BC
  8
1
  6
CONTINUOUS
 62
     7
 10
53.40097851275277
 20
35.0
 30
0.0
 40
7.000000000001672
 50
253.5845102254465
 51
44.99999999998939
  0
ARC
  5
4BD
  8
1
  6
CONTINUOUS
 62
     7
 10
53.40097851275277
 20
35.0
 30
0.0
 40
35.00000000000023
 50
150.2215431420256
 51
180.0
  0
ARC
  5
4BE
  8
1
  6
CONTINUOUS
 62
     7
 10
53.40097851275277
 20
35.0
 30
0.0
 40
35.0
 50
180.0
 51
106.9325570878706
  0
ARC
  5
4BF
  8
1
  6
CONTINUOUS
 62
     2
 10
53.40097851275277
 20
35.0
 30
0.0
 40
26.0
 50
180.0
 51
110.4051577742465
  0
ARC
  5
4C0
  8
1
  6
CONTINUOUS
 62
     2
 10
53.40097851275277
 20
35.0
 30
0.0
 40
26.00000000000137
 50
165.8560733372845
 51
180.0000000000001
  0
ARC
  5
4C1
  8
1
  6
CONTINUOUS
 62
     2
 10
53.40097851275277
 20
35.0
 30
0.0
 40
13.00000000000361
 50
195.3642840078214
 51
102.4210296071983
  0
ARC
  5
4C2
  8
1
  6
CONTINUOUS
 62
     2
 10
53.40097851275277
 20
35.0
 30
0.0
 40
27.00000000000084
 50
164.0807425387761
 51
180.0000000000001
  0
ARC
  5
4C3
  8
1
  6
CONTINUOUS
 62
     2
 10
53.40097851275277
 20
35.0
 30
0.0
 40
27.0
 50
180.0
 51
110.1971573431159
  0
ARC
  5
4C4
  8
1
  6
CONTINUOUS
 62
     7
 10
73.20737427835047
 20
67.51950604220656
 30
0.0
 40
30.0
 50
180.0
 51
224.9999999999926
  0
ARC
  5
4C5
  8
1
  6
CONTINUOUS
 62
     7
 10
52.20737427835047
 20
59.32902263464712
 30
0.0
 40
30.0
 50
179.9999999999999
 51
253.5845102254993
  0
ARC
  5
4C6
  8
1
  6
CONTINUOUS
 62
     7
 10
17.40097851275277
 20
78.11660695809951
 30
0.0
 40
2.0
 50
180.0
 51
270.0
  0
ARC
  5
4C7
  8
1
  6
CONTINUOUS
 62
     7
 10
47.40097851275277
 20
78.11660695809951
 30
0.0
 40
2.0
 50
270.0
 51
359.9999999999996
  0
ENDBLK
  5
4C9
  8
0
  0
BLOCK
  8
0
  2
_9__20
 70
     0
 10
0.0
 20
0.0
 30
0.0
  3
_9__20
  1

  0
LINE
  5
4CC
  8
1
  6
CONTINUOUS
 62
     2
 10
25.5
 20
0.0
 30
0.0
 11
37.5
 21
0.0
 31
0.0
  0
LINE
  5
4CD
  8
1
  6
CONTINUOUS
 62
     2
 10
25.5
 20
21.0
 30
0.0
 11
37.5
 21
21.0
 31
0.0
  0
LINE
  5
4CE
  8
1
  6
LONG_DASHED
 62
     2
 10
25.5
 20
0.0
 30
0.0
 11
25.5
 21
21.0
 31
0.0
  0
LINE
  5
4CF
  8
1
  6
CONTINUOUS
 62
     2
 10
37.5
 20
21.0
 30
0.0
 11
42.0
 21
21.0
 31
0.0
  0
LINE
  5
4D0
  8
1
  6
CONTINUOUS
 62
     2
 10
37.5
 20
0.0
 30
0.0
 11
42.0
 21
0.0
 31
0.0
  0
LINE
  5
4D1
  8
1
  6
LONG_DASHED
 62
     2
 10
37.5
 20
0.0
 30
0.0
 11
37.5
 21
21.0
 31
0.0
  0
LINE
  5
4D2
  8
1
  6
CONTINUOUS
 62
     2
 10
42.0
 20
39.99999999963802
 30
0.0
 11
21.0
 21
40.00274139892645
 31
0.0
  0
LINE
  5
4D3
  8
1
  6
CONTINUOUS
 62
     2
 10
21.0
 20
0.0
 30
0.0
 11
25.5
 21
0.0
 31
0.0
  0
LINE
  5
4D4
  8
1
  6
CONTINUOUS
 62
     2
 10
42.0
 20
21.0
 30
0.0
 11
63.0
 21
21.0
 31
0.0
  0
LINE
  5
4D5
  8
1
  6
CONTINUOUS
 62
     2
 10
42.0
 20
21.0
 30
0.0
 11
42.0
 21
0.0
 31
0.0
  0
LINE
  5
4D6
  8
1
  6
CONTINUOUS
 62
     2
 10
21.0
 20
21.0
 30
0.0
 11
25.5
 21
21.0
 31
0.0
  0
LINE
  5
4D7
  8
1
  6
CONTINUOUS
 62
     2
 10
21.0
 20
0.0
 30
0.0
 11
21.0
 21
21.0
 31
0.0
  0
LINE
  5
4D8
  8
1
  6
CONTINUOUS
 62
     2
 10
49.77648493150991
 20
21.0
 30
0.0
 11
49.77648493150991
 21
37.08022224727938
 31
0.0
  0
LINE
  5
4D9
  8
1
  6
CONTINUOUS
 62
     2
 10
44.58033250891822
 20
21.0
 30
0.0
 11
44.58033250891822
 21
35.02503295418683
 31
0.0
  0
LINE
  5
4DA
  8
1
  6
CONTINUOUS
 62
     2
 10
18.41966749107814
 20
37.08022224727938
 30
0.0
 11
18.41966749107814
 21
21.0
 31
0.0
  0
LINE
  5
4DB
  8
1
  6
CONTINUOUS
 62
     2
 10
13.22351506849009
 20
37.08022224727938
 30
0.0
 11
13.22351506849009
 21
21.0
 31
0.0
  0
LINE
  5
4DC
  8
1
  6
CONTINUOUS
 62
     2
 10
0.0
 20
21.0
 30
0.0
 11
21.0
 21
21.0
 31
0.0
  0
LINE
  5
4DD
  8
1
  6
CONTINUOUS
 62
     2
 10
0.0
 20
33.11060336087394
 30
0.0
 11
0.0
 21
21.0
 31
0.0
  0
LINE
  5
4DE
  8
1
  6
CONTINUOUS
 62
     2
 10
63.0
 20
21.0
 30
0.0
 11
63.0
 21
33.1106033608703
 31
0.0
  0
LINE
  5
4DF
  8
1
  6
CONTINUOUS
 62
     2
 10
0.0
 20
21.0
 30
0.0
 11
0.0
 21
21.0
 31
0.0
  0
ARC
  5
4E0
  8
1
  6
CONTINUOUS
 62
     2
 10
8.04864360333886
 20
34.04366082047272
 30
0.0
 40
5.999999998300541
 50
30.40397300064857
 51
55.09003415726656
  0
ARC
  5
4E1
  8
1
  6
CONTINUOUS
 62
     2
 10
23.59453895622937
 20
34.04366082047272
 30
0.0
 40
5.999999998303172
 50
96.91626541773591
 51
149.596026999354
  0
ARC
  5
4E2
  8
1
  6
CONTINUOUS
 62
     2
 10
21.51831420495728
 20
-8.997258601073554
 30
0.0
 40
49.00000000000066
 50
90.60607694368899
 51
113.7390683930973
  0
ARC
  5
4E3
  8
1
  6
CONTINUOUS
 62
     2
 10
41.48168579502817
 20
-8.997258601073554
 30
0.0
 40
49.00000000000168
 50
66.26093160688933
 51
89.39392305629399
  0
ARC
  5
4E4
  8
1
  6
CONTINUOUS
 62
     2
 10
54.9513563966575
 20
34.04366082047272
 30
0.0
 40
5.99999999830185
 50
124.9099658427228
 51
149.5960269993358
  0
ARC
  5
4E5
  8
1
  6
CONTINUOUS
 62
     2
 10
37.329919626638
 20
33.01606617392645
 30
0.0
 40
7.523591860788613
 50
15.48715271490783
 51
68.1669142966476
  0
ARC
  5
4E6
  8
1
  6
CONTINUOUS
 62
     2
 10
3.0
 20
33.11060336087394
 30
0.0
 40
2.999999999999531
 50
113.7390683931264
 51
180.0
  0
ARC
  5
4E7
  8
1
  6
CONTINUOUS
 62
     2
 10
60.0
 20
33.1106033608703
 30
0.0
 40
3.0
 50
0.0000000000001357
 51
66.26093160695132
  0
ENDBLK
  5
4E9
  8
0
  0
BLOCK
  8
0
  2
_1__21
 70
     0
 10
0.0
 20
0.0
 30
0.0
  3
_1__21
  1

  0
LINE
  5
4EC
  8
1
  6
CONTINUOUS
 62
     7
 10
-8.0
 20
15.0
 30
0.0
 11
-9.0
 21
15.0
 31
0.0
  0
LINE
  5
4ED
  8
1
  6
CONTINUOUS
 62
     7
 10
-32.0
 20
15.0
 30
0.0
 11
-31.0
 21
15.0
 31
0.0
  0
LINE
  5
4EE
  8
1
  6
CONTINUOUS
 62
     7
 10
-22.0
 20
15.0
 30
0.0
 11
-18.0
 21
15.0
 31
0.0
  0
LINE
  5
4EF
  8
1
  6
CONTINUOUS
 62
     7
 10
-8.0
 20
15.0
 30
0.0
 11
-8.0
 21
5.0
 31
0.0
  0
LINE
  5
4F0
  8
1
  6
CONTINUOUS
 62
     7
 10
-9.0
 20
5.0
 30
0.0
 11
-9.0
 21
15.0
 31
0.0
  0
LINE
  5
4F1
  8
1
  6
CONTINUOUS
 62
     7
 10
-18.0
 20
15.0
 30
0.0
 11
-18.0
 21
5.0
 31
0.0
  0
LINE
  5
4F2
  8
1
  6
CONTINUOUS
 62
     7
 10
-22.0
 20
5.0
 30
0.0
 11
-22.0
 21
15.0
 31
0.0
  0
LINE
  5
4F3
  8
1
  6
CONTINUOUS
 62
     7
 10
-31.0
 20
15.0
 30
0.0
 11
-31.0
 21
5.0
 31
0.0
  0
LINE
  5
4F4
  8
1
  6
CONTINUOUS
 62
     7
 10
-32.0
 20
5.0
 30
0.0
 11
-32.0
 21
15.0
 31
0.0
  0
LINE
  5
4F5
  8
1
  6
CONTINUOUS
 62
     7
 10
-31.5
 20
5.0
 30
0.0
 11
-31.5
 21
0.0
 31
0.0
  0
LINE
  5
4F6
  8
1
  6
CONTINUOUS
 62
     7
 10
-31.5
 20
0.0
 30
0.0
 11
-8.5
 21
0.0
 31
0.0
  0
LINE
  5
4F7
  8
1
  6
CONTINUOUS
 62
     7
 10
-8.5
 20
0.0
 30
0.0
 11
-8.5
 21
5.0
 31
0.0
  0
LINE
  5
4F8
  8
1
  6
CONTINUOUS
 62
     7
 10
-40.0
 20
5.0
 30
0.0
 11
-31.5
 21
5.0
 31
0.0
  0
LINE
  5
4F9
  8
1
  6
CONTINUOUS
 62
     7
 10
-31.5
 20
5.0
 30
0.0
 11
-8.5
 21
5.0
 31
0.0
  0
LINE
  5
4FA
  8
1
  6
CONTINUOUS
 62
     7
 10
-31.5
 20
5.0
 30
0.0
 11
-8.5
 21
5.0
 31
0.0
  0
LINE
  5
4FB
  8
1
  6
CONTINUOUS
 62
     7
 10
-40.0
 20
15.0
 30
0.0
 11
-40.0
 21
5.0
 31
0.0
  0
LINE
  5
4FC
  8
1
  6
CONTINUOUS
 62
     7
 10
-8.5
 20
5.0
 30
0.0
 11
0.0
 21
5.0
 31
0.0
  0
LINE
  5
4FD
  8
1
  6
CONTINUOUS
 62
     7
 10
0.0
 20
5.0
 30
0.0
 11
0.0
 21
15.0
 31
0.0
  0
LINE
  5
4FE
  8
1
  6
CONTINUOUS
 62
     7
 10
-4.0
 20
19.0
 30
0.0
 11
-36.0
 21
19.0
 31
0.0
  0
LINE
  5
4FF
  8
1
  6
DOT_CENTER
 62
     2
 10
-20.0
 20
0.0
 30
0.0
 11
-20.0
 21
22.57189822624969
 31
0.0
  0
ARC
  5
500
  8
1
  6
CONTINUOUS
 62
     7
 10
-4.0
 20
15.0
 30
0.0
 40
4.0
 50
90.0
 51
180.0000000000001
  0
ARC
  5
501
  8
1
  6
CONTINUOUS
 62
     7
 10
-13.0
 20
15.0
 30
0.0
 40
4.0
 50
359.9999999999999
 51
90.0
  0
ARC
  5
502
  8
1
  6
CONTINUOUS
 62
     7
 10
-14.0
 20
15.0
 30
0.0
 40
4.0
 50
90.0
 51
180.0000000000001
  0
ARC
  5
503
  8
1
  6
CONTINUOUS
 62
     7
 10
-26.0
 20
15.0
 30
0.0
 40
4.0
 50
0.0
 51
90.0
  0
ARC
  5
504
  8
1
  6
CONTINUOUS
 62
     7
 10
-27.0
 20
15.0
 30
0.0
 40
4.0
 50
90.0
 51
180.0000000000002
  0
ARC
  5
505
  8
1
  6
CONTINUOUS
 62
     7
 10
-36.0
 20
15.0
 30
0.0
 40
4.0
 50
0.0000000000000254
 51
90.0
  0
ARC
  5
506
  8
1
  6
CONTINUOUS
 62
     7
 10
-4.0
 20
15.0
 30
0.0
 40
4.0
 50
0.0
 51
90.0
  0
ARC
  5
507
  8
1
  6
CONTINUOUS
 62
     7
 10
-36.0
 20
15.0
 30
0.0
 40
4.0
 50
90.0
 51
180.0000000000001
  0
ENDBLK
  5
509
  8
0
  0
BLOCK
  8
0
  2
_1__22
 70
     0
 10
0.0
 20
0.0
 30
0.0
  3
_1__22
  1

  0
LINE
  5
50C
  8
1
  6
DOT_CENTER
 62
     2
 10
-20.0
 20
0.0
 30
0.0
 11
-20.0
 21
22.57189822624969
 31
0.0
  0
LINE
  5
50D
  8
1
  6
CONTINUOUS
 62
     7
 10
-4.0
 20
19.0
 30
0.0
 11
-36.0
 21
19.0
 31
0.0
  0
LINE
  5
50E
  8
1
  6
CONTINUOUS
 62
     7
 10
0.0
 20
5.0
 30
0.0
 11
0.0
 21
15.0
 31
0.0
  0
LINE
  5
50F
  8
1
  6
CONTINUOUS
 62
     7
 10
-8.5
 20
5.0
 30
0.0
 11
0.0
 21
5.0
 31
0.0
  0
LINE
  5
510
  8
1
  6
CONTINUOUS
 62
     7
 10
-40.0
 20
15.0
 30
0.0
 11
-40.0
 21
5.0
 31
0.0
  0
LINE
  5
511
  8
1
  6
CONTINUOUS
 62
     7
 10
-31.5
 20
5.0
 30
0.0
 11
-8.5
 21
5.0
 31
0.0
  0
LINE
  5
512
  8
1
  6
CONTINUOUS
 62
     7
 10
-31.5
 20
5.0
 30
0.0
 11
-8.5
 21
5.0
 31
0.0
  0
LINE
  5
513
  8
1
  6
CONTINUOUS
 62
     7
 10
-40.0
 20
5.0
 30
0.0
 11
-31.5
 21
5.0
 31
0.0
  0
LINE
  5
514
  8
1
  6
CONTINUOUS
 62
     7
 10
-8.5
 20
0.0
 30
0.0
 11
-8.5
 21
5.0
 31
0.0
  0
LINE
  5
515
  8
1
  6
CONTINUOUS
 62
     7
 10
-31.5
 20
0.0
 30
0.0
 11
-8.5
 21
0.0
 31
0.0
  0
LINE
  5
516
  8
1
  6
CONTINUOUS
 62
     7
 10
-31.5
 20
5.0
 30
0.0
 11
-31.5
 21
0.0
 31
0.0
  0
LINE
  5
517
  8
1
  6
CONTINUOUS
 62
     7
 10
-32.0
 20
5.0
 30
0.0
 11
-32.0
 21
15.0
 31
0.0
  0
LINE
  5
518
  8
1
  6
CONTINUOUS
 62
     7
 10
-31.0
 20
15.0
 30
0.0
 11
-31.0
 21
5.0
 31
0.0
  0
LINE
  5
519
  8
1
  6
CONTINUOUS
 62
     7
 10
-22.0
 20
5.0
 30
0.0
 11
-22.0
 21
15.0
 31
0.0
  0
LINE
  5
51A
  8
1
  6
CONTINUOUS
 62
     7
 10
-18.0
 20
15.0
 30
0.0
 11
-18.0
 21
5.0
 31
0.0
  0
LINE
  5
51B
  8
1
  6
CONTINUOUS
 62
     7
 10
-9.0
 20
5.0
 30
0.0
 11
-9.0
 21
15.0
 31
0.0
  0
LINE
  5
51C
  8
1
  6
CONTINUOUS
 62
     7
 10
-8.0
 20
15.0
 30
0.0
 11
-8.0
 21
5.0
 31
0.0
  0
LINE
  5
51D
  8
1
  6
CONTINUOUS
 62
     7
 10
-22.0
 20
15.0
 30
0.0
 11
-18.0
 21
15.0
 31
0.0
  0
LINE
  5
51E
  8
1
  6
CONTINUOUS
 62
     7
 10
-32.0
 20
15.0
 30
0.0
 11
-31.0
 21
15.0
 31
0.0
  0
LINE
  5
51F
  8
1
  6
CONTINUOUS
 62
     7
 10
-8.0
 20
15.0
 30
0.0
 11
-9.0
 21
15.0
 31
0.0
  0
ARC
  5
520
  8
1
  6
CONTINUOUS
 62
     7
 10
-36.0
 20
15.0
 30
0.0
 40
4.0
 50
90.0
 51
180.0000000000001
  0
ARC
  5
521
  8
1
  6
CONTINUOUS
 62
     7
 10
-4.0
 20
15.0
 30
0.0
 40
4.0
 50
0.0
 51
90.0
  0
ARC
  5
522
  8
1
  6
CONTINUOUS
 62
     7
 10
-36.0
 20
15.0
 30
0.0
 40
4.0
 50
0.0000000000000254
 51
90.0
  0
ARC
  5
523
  8
1
  6
CONTINUOUS
 62
     7
 10
-27.0
 20
15.0
 30
0.0
 40
4.0
 50
90.0
 51
180.0000000000002
  0
ARC
  5
524
  8
1
  6
CONTINUOUS
 62
     7
 10
-26.0
 20
15.0
 30
0.0
 40
4.0
 50
0.0
 51
90.0
  0
ARC
  5
525
  8
1
  6
CONTINUOUS
 62
     7
 10
-14.0
 20
15.0
 30
0.0
 40
4.0
 50
90.0
 51
180.0000000000001
  0
ARC
  5
526
  8
1
  6
CONTINUOUS
 62
     7
 10
-13.0
 20
15.0
 30
0.0
 40
4.0
 50
359.9999999999999
 51
90.0
  0
ARC
  5
527
  8
1
  6
CONTINUOUS
 62
     7
 10
-4.0
 20
15.0
 30
0.0
 40
4.0
 50
90.0
 51
180.0000000000001
  0
ENDBLK
  5
529
  8
0
  0
BLOCK
  8
0
  2
_11__23
 70
     0
 10
0.0
 20
0.0
 30
0.0
  3
_11__23
  1

  0
LINE
  5
52C
  8
1
  6
CONTINUOUS
 62
     7
 10
-66.1936042344023
 20
59.32902263464712
 30
0.0
 11
-66.1936042344023
 21
73.0
 31
0.0
  0
LINE
  5
52D
  8
1
  6
CONTINUOUS
 62
     7
 10
-39.0
 20
88.89247932886065
 30
0.0
 11
-41.0
 21
88.89247932886065
 31
0.0
  0
LINE
  5
52E
  8
1
  6
CONTINUOUS
 62
     7
 10
-21.0
 20
91.0
 30
0.0
 11
-40.75870377400133
 21
91.0
 31
0.0
  0
LINE
  5
52F
  8
1
  6
CONTINUOUS
 62
     7
 10
-91.0
 20
93.0
 30
0.0
 11
-71.0
 21
93.0
 31
0.0
  0
LINE
  5
530
  8
1
  6
DOT_CENTER
 62
     2
 10
-5.864694720999978
 20
35.0
 30
0.0
 11
-65.99567207620203
 21
35.0
 31
0.0
  0
LINE
  5
531
  8
1
  6
CONTINUOUS
 62
     7
 10
-44.67162807598288
 20
30.55189435989269
 30
0.0
 11
-36.97820556304214
 21
28.28533673589118
 31
0.0
  0
LINE
  5
532
  8
1
  6
CONTINUOUS
 62
     7
 10
-45.1936042344023
 20
73.0
 30
0.0
 11
-45.1936042344023
 21
67.51950604220656
 31
0.0
  0
LINE
  5
533
  8
1
  6
CONTINUOUS
 62
     7
 10
-30.05025253169151
 20
39.94974746830667
 30
0.0
 11
-36.40680767000231
 21
46.30630260661019
 31
0.0
  0
LINE
  5
534
  8
1
  6
CONTINUOUS
 62
     7
 10
-73.0
 20
88.89247932886065
 30
0.0
 11
-73.0
 21
78.11660695809951
 31
0.0
  0
LINE
  5
535
  8
1
  6
CONTINUOUS
 62
     7
 10
-39.0
 20
78.11660695809951
 30
0.0
 11
-39.0
 21
88.89247932886065
 31
0.0
  0
LINE
  5
536
  8
1
  6
CONTINUOUS
 62
     7
 10
-71.0
 20
88.89247932886065
 30
0.0
 11
-73.0
 21
88.89247932886065
 31
0.0
  0
LINE
  5
537
  8
1
  6
DOT_CENTER
 62
     2
 10
-35.0
 20
17.86628385782024
 30
0.0
 11
-35.0
 21
75.86628385782024
 31
0.0
  0
LINE
  5
538
  8
1
  6
DOT_CENTER
 62
     2
 10
-56.0
 20
48.0942886904304
 30
0.0
 11
-56.0
 21
106.0942886904304
 31
0.0
  0
LINE
  5
539
  8
1
  6
CONTINUOUS
 62
     7
 10
-21.0
 20
93.0
 30
0.0
 11
-21.0
 21
91.0
 31
0.0
  0
LINE
  5
53A
  8
1
  6
CONTINUOUS
 62
     7
 10
-71.2412962260023
 20
91.0
 30
0.0
 11
-91.0
 21
91.0
 31
0.0
  0
LINE
  5
53B
  8
1
  6
CONTINUOUS
 62
     7
 10
-91.0
 20
91.0
 30
0.0
 11
-91.0
 21
93.0
 31
0.0
  0
LINE
  5
53C
  8
1
  6
CONTINUOUS
 62
     7
 10
-41.0
 20
93.0
 30
0.0
 11
-21.0
 21
93.0
 31
0.0
  0
ARC
  5
53D
  8
1
  6
CONTINUOUS
 62
     2
 10
-35.0
 20
35.0
 30
0.0
 40
13.00000000000234
 50
212.2042275039885
 51
102.4210296071985
  0
ARC
  5
53E
  8
1
  6
CONTINUOUS
 62
     2
 10
-35.0
 20
35.0
 30
0.0
 40
26.00000000000064
 50
259.269760127051
 51
110.4051577742466
  0
ARC
  5
53F
  8
1
  6
CONTINUOUS
 62
     2
 10
-35.0
 20
35.0
 30
0.0
 40
27.00000000000119
 50
260.7737769413034
 51
110.1971573431146
  0
ARC
  5
540
  8
1
  6
CONTINUOUS
 62
     7
 10
-35.0
 20
35.0
 30
0.0
 40
34.99999999999972
 50
283.0793719762207
 51
106.9325570878706
  0
ARC
  5
541
  8
1
  6
CONTINUOUS
 62
     2
 10
-35.0
 20
35.0
 30
0.0
 40
13.00000000000361
 50
195.3642840078214
 51
212.2042275039884
  0
ARC
  5
542
  8
1
  6
CONTINUOUS
 62
     7
 10
-35.0
 20
35.0
 30
0.0
 40
35.0
 50
179.9999999999999
 51
204.1074254714915
  0
ARC
  5
543
  8
1
  6
CONTINUOUS
 62
     7
 10
-35.0
 20
35.0
 30
0.0
 40
35.00000000000023
 50
150.2215431420256
 51
180.0
  0
ARC
  5
544
  8
1
  6
CONTINUOUS
 62
     7
 10
-35.0
 20
35.0
 30
0.0
 40
7.000000000001672
 50
253.5845102254466
 51
44.99999999998927
  0
ARC
  5
545
  8
1
  6
CONTINUOUS
 62
     7
 10
-36.1936042344023
 20
59.32902263464712
 30
0.0
 40
29.99999999999881
 50
242.5991347406097
 51
253.5845102254993
  0
ARC
  5
546
  8
1
  6
CONTINUOUS
 62
     7
 10
-41.0
 20
78.11660695809951
 30
0.0
 40
2.0
 50
270.0
 51
0.0000000000004071
  0
ARC
  5
547
  8
1
  6
CONTINUOUS
 62
     7
 10
-71.0
 20
78.11660695809951
 30
0.0
 40
2.0
 50
180.0
 51
270.0
  0
ARC
  5
548
  8
1
  6
CONTINUOUS
 62
     7
 10
-36.1936042344023
 20
59.32902263464712
 30
0.0
 40
30.0
 50
179.9999999999999
 51
210.6594714710542
  0
ARC
  5
549
  8
1
  6
CONTINUOUS
 62
     7
 10
-15.1936042344023
 20
67.51950604220656
 30
0.0
 40
30.0
 50
180.0
 51
224.9999999999926
  0
ENDBLK
  5
54B
  8
0
  0
BLOCK
  8
0
  2
_9__24
 70
     0
 10
0.0
 20
0.0
 30
0.0
  3
_9__24
  1

  0
LINE
  5
54E
  8
1
  6
CONTINUOUS
 62
     2
 10
0.0
 20
21.0
 30
0.0
 11
0.0
 21
21.0
 31
0.0
  0
LINE
  5
54F
  8
1
  6
CONTINUOUS
 62
     2
 10
-63.0
 20
33.1106033608703
 30
0.0
 11
-63.0
 21
21.0
 31
0.0
  0
LINE
  5
550
  8
1
  6
CONTINUOUS
 62
     2
 10
0.0
 20
21.0
 30
0.0
 11
0.0
 21
33.11060336087394
 31
0.0
  0
LINE
  5
551
  8
1
  6
CONTINUOUS
 62
     2
 10
-21.0
 20
21.0
 30
0.0
 11
0.0
 21
21.0
 31
0.0
  0
LINE
  5
552
  8
1
  6
CONTINUOUS
 62
     2
 10
-13.22351506849009
 20
21.0
 30
0.0
 11
-13.22351506849009
 21
37.08022224727938
 31
0.0
  0
LINE
  5
553
  8
1
  6
CONTINUOUS
 62
     2
 10
-18.41966749108178
 20
21.0
 30
0.0
 11
-18.41966749108178
 21
37.08022224727938
 31
0.0
  0
LINE
  5
554
  8
1
  6
CONTINUOUS
 62
     2
 10
-44.58033250892186
 20
35.02503295418683
 30
0.0
 11
-44.58033250892186
 21
21.0
 31
0.0
  0
LINE
  5
555
  8
1
  6
CONTINUOUS
 62
     2
 10
-49.77648493150991
 20
37.08022224727938
 30
0.0
 11
-49.77648493150991
 21
21.0
 31
0.0
  0
LINE
  5
556
  8
1
  6
CONTINUOUS
 62
     2
 10
-21.0
 20
21.0
 30
0.0
 11
-21.0
 21
0.0
 31
0.0
  0
LINE
  5
557
  8
1
  6
CONTINUOUS
 62
     2
 10
-25.5
 20
21.0
 30
0.0
 11
-21.0
 21
21.0
 31
0.0
  0
LINE
  5
558
  8
1
  6
CONTINUOUS
 62
     2
 10
-42.0
 20
0.0
 30
0.0
 11
-42.0
 21
21.0
 31
0.0
  0
LINE
  5
559
  8
1
  6
CONTINUOUS
 62
     2
 10
-63.0
 20
21.0
 30
0.0
 11
-42.0
 21
21.0
 31
0.0
  0
LINE
  5
55A
  8
1
  6
CONTINUOUS
 62
     2
 10
-25.5
 20
0.0
 30
0.0
 11
-21.0
 21
0.0
 31
0.0
  0
LINE
  5
55B
  8
1
  6
CONTINUOUS
 62
     2
 10
-21.0
 20
40.00274139892645
 30
0.0
 11
-42.0
 21
39.99999999963802
 31
0.0
  0
LINE
  5
55C
  8
1
  6
CONTINUOUS
 62
     2
 10
-42.0
 20
0.0
 30
0.0
 11
-37.5
 21
0.0
 31
0.0
  0
LINE
  5
55D
  8
1
  6
LONG_DASHED
 62
     2
 10
-37.5
 20
21.0
 30
0.0
 11
-37.5
 21
0.0
 31
0.0
  0
LINE
  5
55E
  8
1
  6
CONTINUOUS
 62
     2
 10
-42.0
 20
21.0
 30
0.0
 11
-37.5
 21
21.0
 31
0.0
  0
LINE
  5
55F
  8
1
  6
CONTINUOUS
 62
     2
 10
-37.5
 20
21.0
 30
0.0
 11
-25.5
 21
21.0
 31
0.0
  0
LINE
  5
560
  8
1
  6
CONTINUOUS
 62
     2
 10
-37.5
 20
0.0
 30
0.0
 11
-25.5
 21
0.0
 31
0.0
  0
LINE
  5
561
  8
1
  6
LONG_DASHED
 62
     2
 10
-25.5
 20
21.0
 30
0.0
 11
-25.5
 21
0.0
 31
0.0
  0
ARC
  5
562
  8
1
  6
CONTINUOUS
 62
     2
 10
-37.32991962664164
 20
33.01606617392645
 30
0.0
 40
7.523591860793247
 50
111.833085703342
 51
164.5128472850863
  0
ARC
  5
563
  8
1
  6
CONTINUOUS
 62
     2
 10
-54.95135639666114
 20
34.04366082047272
 30
0.0
 40
5.999999998300541
 50
30.4039730006486
 51
55.09003415726665
  0
ARC
  5
564
  8
1
  6
CONTINUOUS
 62
     2
 10
-41.48168579503181
 20
-8.997258601073554
 30
0.0
 40
49.00000000000078
 50
90.60607694370184
 51
113.7390683931108
  0
ARC
  5
565
  8
1
  6
CONTINUOUS
 62
     2
 10
-21.51831420496092
 20
-8.997258601073554
 30
0.0
 40
48.99999999999896
 50
66.26093160690186
 51
89.3939230563067
  0
ARC
  5
566
  8
1
  6
CONTINUOUS
 62
     2
 10
-23.59453895622937
 20
34.04366082047272
 30
0.0
 40
5.999999998297403
 50
30.4039730006667
 51
83.08373458229256
  0
ARC
  5
567
  8
1
  6
CONTINUOUS
 62
     2
 10
-8.048643603342498
 20
34.04366082047272
 30
0.0
 40
5.99999999830185
 50
124.9099658427235
 51
149.5960269993365
  0
ARC
  5
568
  8
1
  6
CONTINUOUS
 62
     2
 10
-60.0
 20
33.1106033608703
 30
0.0
 40
3.000000000001196
 50
113.7390683931126
 51
179.9999999999999
  0
ARC
  5
569
  8
1
  6
CONTINUOUS
 62
     2
 10
-3.0
 20
33.11060336087394
 30
0.0
 40
3.0
 50
0.0
 51
66.26093160695123
  0
ENDBLK
  5
56B
  8
0
  0
BLOCK
  8
0
  2
_9__25
 70
     0
 10
0.0
 20
0.0
 30
0.0
  3
_9__25
  1

  0
LINE
  5
56E
  8
1
  6
DOT_CENTER
 62
     2
 10
-31.5
 20
0.8857590121206158
 30
0.0
 11
-31.5
 21
14.9907722152202
 31
0.0
  0
LINE
  5
56F
  8
1
  6
DOT_CENTER
 62
     2
 10
-35.82724544800294
 20
7.0
 30
0.0
 11
-27.03621396320159
 21
7.0
 31
0.0
  0
LINE
  5
570
  8
1
  6
LONG_DASHED
 62
     2
 10
-25.5
 20
21.0
 30
0.0
 11
-25.5
 21
12.0
 31
0.0
  0
LINE
  5
571
  8
1
  6
LONG_DASHED
 62
     2
 10
-25.5
 20
12.0
 30
0.0
 11
-37.5
 21
12.0
 31
0.0
  0
LINE
  5
572
  8
1
  6
CONTINUOUS
 62
     2
 10
-37.5
 20
0.0
 30
0.0
 11
-25.5
 21
0.0
 31
0.0
  0
LINE
  5
573
  8
1
  6
CONTINUOUS
 62
     2
 10
-37.5
 20
21.0
 30
0.0
 11
-25.5
 21
21.0
 31
0.0
  0
LINE
  5
574
  8
1
  6
LONG_DASHED
 62
     2
 10
-25.5
 20
12.0
 30
0.0
 11
-25.5
 21
0.0
 31
0.0
  0
LINE
  5
575
  8
1
  6
CONTINUOUS
 62
     2
 10
-42.0
 20
21.0
 30
0.0
 11
-37.5
 21
21.0
 31
0.0
  0
LINE
  5
576
  8
1
  6
LONG_DASHED
 62
     2
 10
-37.5
 20
21.0
 30
0.0
 11
-37.5
 21
12.0
 31
0.0
  0
LINE
  5
577
  8
1
  6
CONTINUOUS
 62
     2
 10
-42.0
 20
0.0
 30
0.0
 11
-37.5
 21
0.0
 31
0.0
  0
LINE
  5
578
  8
1
  6
LONG_DASHED
 62
     2
 10
-37.5
 20
12.0
 30
0.0
 11
-37.5
 21
0.0
 31
0.0
  0
LINE
  5
579
  8
1
  6
CONTINUOUS
 62
     2
 10
-21.0
 20
40.00274139892645
 30
0.0
 11
-42.0
 21
39.99999999963802
 31
0.0
  0
LINE
  5
57A
  8
1
  6
CONTINUOUS
 62
     2
 10
-25.5
 20
0.0
 30
0.0
 11
-21.0
 21
0.0
 31
0.0
  0
LINE
  5
57B
  8
1
  6
CONTINUOUS
 62
     2
 10
-63.0
 20
21.0
 30
0.0
 11
-42.0
 21
21.0
 31
0.0
  0
LINE
  5
57C
  8
1
  6
CONTINUOUS
 62
     2
 10
-42.0
 20
0.0
 30
0.0
 11
-42.0
 21
21.0
 31
0.0
  0
LINE
  5
57D
  8
1
  6
CONTINUOUS
 62
     2
 10
-25.5
 20
21.0
 30
0.0
 11
-21.0
 21
21.0
 31
0.0
  0
LINE
  5
57E
  8
1
  6
CONTINUOUS
 62
     2
 10
-21.0
 20
21.0
 30
0.0
 11
-21.0
 21
0.0
 31
0.0
  0
LINE
  5
57F
  8
1
  6
CONTINUOUS
 62
     2
 10
-49.77648493150991
 20
37.08022224727938
 30
0.0
 11
-49.77648493150991
 21
21.0
 31
0.0
  0
LINE
  5
580
  8
1
  6
CONTINUOUS
 62
     2
 10
-44.58033250892186
 20
35.02503295418683
 30
0.0
 11
-44.58033250892186
 21
21.0
 31
0.0
  0
LINE
  5
581
  8
1
  6
CONTINUOUS
 62
     2
 10
-18.41966749108178
 20
21.0
 30
0.0
 11
-18.41966749108178
 21
37.08022224727938
 31
0.0
  0
LINE
  5
582
  8
1
  6
CONTINUOUS
 62
     2
 10
-13.22351506849009
 20
21.0
 30
0.0
 11
-13.22351506849009
 21
37.08022224727938
 31
0.0
  0
LINE
  5
583
  8
1
  6
CONTINUOUS
 62
     2
 10
-21.0
 20
21.0
 30
0.0
 11
0.0
 21
21.0
 31
0.0
  0
LINE
  5
584
  8
1
  6
CONTINUOUS
 62
     2
 10
0.0
 20
21.0
 30
0.0
 11
0.0
 21
33.11060336087394
 31
0.0
  0
LINE
  5
585
  8
1
  6
CONTINUOUS
 62
     2
 10
-63.0
 20
33.1106033608703
 30
0.0
 11
-63.0
 21
21.0
 31
0.0
  0
LINE
  5
586
  8
1
  6
CONTINUOUS
 62
     2
 10
0.0
 20
21.0
 30
0.0
 11
0.0
 21
21.0
 31
0.0
  0
ARC
  5
587
  8
1
  6
CONTINUOUS
 62
     2
 10
-8.048643603342498
 20
34.04366082047272
 30
0.0
 40
5.99999999830185
 50
124.9099658427235
 51
149.5960269993365
  0
ARC
  5
588
  8
1
  6
CONTINUOUS
 62
     2
 10
-23.59453895622937
 20
34.04366082047272
 30
0.0
 40
5.999999998297403
 50
30.4039730006667
 51
83.08373458229256
  0
ARC
  5
589
  8
1
  6
CONTINUOUS
 62
     2
 10
-21.51831420496092
 20
-8.997258601073554
 30
0.0
 40
48.99999999999896
 50
66.26093160690186
 51
89.3939230563067
  0
ARC
  5
58A
  8
1
  6
CONTINUOUS
 62
     2
 10
-41.48168579503181
 20
-8.997258601073554
 30
0.0
 40
49.00000000000078
 50
90.60607694370184
 51
113.7390683931108
  0
ARC
  5
58B
  8
1
  6
CONTINUOUS
 62
     2
 10
-54.95135639666114
 20
34.04366082047272
 30
0.0
 40
5.999999998300541
 50
30.4039730006486
 51
55.09003415726665
  0
ARC
  5
58C
  8
1
  6
CONTINUOUS
 62
     2
 10
-37.32991962664164
 20
33.01606617392645
 30
0.0
 40
7.523591860793247
 50
111.833085703342
 51
164.5128472850863
  0
CIRCLE
  5
58D
  8
1
  6
CONTINUOUS
 62
     2
 10
-31.5
 20
7.0
 30
0.0
 40
2.0
  0
CIRCLE
  5
58E
  8
1
  6
CONTINUOUS
 62
     2
 10
-31.5
 20
7.0
 30
0.0
 40
3.0
  0
ARC
  5
58F
  8
1
  6
CONTINUOUS
 62
     2
 10
-3.0
 20
33.11060336087394
 30
0.0
 40
3.0
 50
0.0
 51
66.26093160695123
  0
ARC
  5
590
  8
1
  6
CONTINUOUS
 62
     2
 10
-60.0
 20
33.1106033608703
 30
0.0
 40
3.000000000001196
 50
113.7390683931126
 51
179.9999999999999
  0
ENDBLK
  5
592
  8
0
  0
BLOCK
  8
0
  2
_2__26
 70
     0
 10
0.0
 20
0.0
 30
0.0
  3
_2__26
  1

  0
LINE
  5
595
  8
1
  6
CONTINUOUS
 62
     7
 10
-31.45880422556002
 20
28.29191740082388
 30
0.0
 11
-34.00000000001091
 21
28.29191740082388
 31
0.0
  0
LINE
  5
596
  8
1
  6
CONTINUOUS
 62
     7
 10
-31.45880422556002
 20
28.29191740082388
 30
0.0
 11
-35.00000000001091
 21
28.29191740082388
 31
0.0
  0
LINE
  5
597
  8
1
  6
CONTINUOUS
 62
     7
 10
-15.73330941372114
 20
28.29191740082388
 30
0.0
 11
-25.00000000001091
 21
28.29191740082388
 31
0.0
  0
LINE
  5
598
  8
1
  6
CONTINUOUS
 62
     7
 10
-15.26669058630068
 20
28.29191740082388
 30
0.0
 11
-27.97431033556131
 21
28.29191740082388
 31
0.0
  0
LINE
  5
599
  8
1
  6
CONTINUOUS
 62
     7
 10
-25.0
 20
28.29191740082388
 30
0.0
 11
-27.97431033556131
 21
28.29191740082388
 31
0.0
  0
LINE
  5
59A
  8
1
  6
CONTINUOUS
 62
     7
 10
-27.97431033556131
 20
28.29191740082388
 30
0.0
 11
-31.45880422556002
 21
28.29191740082388
 31
0.0
  0
LINE
  5
59B
  8
1
  6
CONTINUOUS
 62
     7
 10
-27.97431033556131
 20
28.29191740082388
 30
0.0
 11
-31.45880422556002
 21
28.29191740082388
 31
0.0
  0
LINE
  5
59C
  8
1
  6
CONTINUOUS
 62
     7
 10
-45.0
 20
14.29191740082388
 30
0.0
 11
-35.00000000001091
 21
28.29191740082388
 31
0.0
  0
LINE
  5
59D
  8
1
  6
CONTINUOUS
 62
     7
 10
-45.0
 20
11.29191740082388
 30
0.0
 11
-45.0
 21
14.29191740082388
 31
0.0
  0
LINE
  5
59E
  8
1
  6
CONTINUOUS
 62
     7
 10
-44.5
 20
11.29191740082388
 30
0.0
 11
-45.0
 21
11.29191740082388
 31
0.0
  0
LINE
  5
59F
  8
1
  6
CONTINUOUS
 62
     7
 10
-5.0
 20
14.29191740082388
 30
0.0
 11
-5.0
 21
11.29191740082388
 31
0.0
  0
LINE
  5
5A0
  8
1
  6
CONTINUOUS
 62
     7
 10
-15.26669058630068
 20
28.29191740082388
 30
0.0
 11
-5.0
 21
14.29191740082388
 31
0.0
  0
LINE
  5
5A1
  8
1
  6
CONTINUOUS
 62
     2
 10
-5.0
 20
14.29191740082388
 30
0.0
 11
-45.0
 21
14.29191740082388
 31
0.0
  0
LINE
  5
5A2
  8
1
  6
CONTINUOUS
 62
     7
 10
-44.5
 20
8.291917400823877
 30
0.0
 11
-44.5
 21
11.29191740082388
 31
0.0
  0
LINE
  5
5A3
  8
1
  6
CONTINUOUS
 62
     7
 10
-5.0
 20
11.29191740082388
 30
0.0
 11
-44.5
 21
11.29191740082388
 31
0.0
  0
LINE
  5
5A4
  8
1
  6
CONTINUOUS
 62
     7
 10
-5.5
 20
11.29191740082388
 30
0.0
 11
-5.5
 21
8.291917400823877
 31
0.0
  0
LINE
  5
5A5
  8
1
  6
CONTINUOUS
 62
     7
 10
-44.5
 20
8.291917400823877
 30
0.0
 11
-5.5
 21
8.291917400823877
 31
0.0
  0
LINE
  5
5A6
  8
1
  6
CONTINUOUS
 62
     2
 10
-31.0
 20
36.79191740082388
 30
0.0
 11
-25.0
 21
36.79191740082388
 31
0.0
  0
LINE
  5
5A7
  8
1
  6
CONTINUOUS
 62
     2
 10
-25.0
 20
36.10072794739062
 30
0.0
 11
-25.00000000001091
 21
34.79191740082388
 31
0.0
  0
LINE
  5
5A8
  8
1
  6
CONTINUOUS
 62
     2
 10
-31.0
 20
36.79191740082388
 30
0.0
 11
-31.00000000001091
 21
36.79191740082388
 31
0.0
  0
LINE
  5
5A9
  8
1
  6
CONTINUOUS
 62
     2
 10
-25.00000000001091
 20
36.10072794739062
 30
0.0
 11
-25.0
 21
36.10072794739062
 31
0.0
  0
LINE
  5
5AA
  8
1
  6
CONTINUOUS
 62
     2
 10
-18.00000000001091
 20
36.10072794739062
 30
0.0
 11
-18.00000000001091
 21
34.79191740082388
 31
0.0
  0
LINE
  5
5AB
  8
1
  6
CONTINUOUS
 62
     2
 10
-15.00000000001091
 20
36.10072794739062
 30
0.0
 11
-15.00000000001091
 21
34.79191740082388
 31
0.0
  0
LINE
  5
5AC
  8
1
  6
CONTINUOUS
 62
     2
 10
-32.00000000001091
 20
34.79191740082388
 30
0.0
 11
-32.00000000001091
 21
36.10072794739062
 31
0.0
  0
LINE
  5
5AD
  8
1
  6
CONTINUOUS
 62
     2
 10
-35.00000000001091
 20
34.79191740082388
 30
0.0
 11
-35.00000000001091
 21
36.10072794739062
 31
0.0
  0
LINE
  5
5AE
  8
1
  6
CONTINUOUS
 62
     2
 10
-25.0
 20
29.78990821917614
 30
0.0
 11
-31.00000000001091
 21
29.78990821917614
 31
0.0
  0
LINE
  5
5AF
  8
1
  6
CONTINUOUS
 62
     2
 10
-25.00000000001091
 20
34.79191740082388
 30
0.0
 11
-25.0
 21
30.48109767260939
 31
0.0
  0
LINE
  5
5B0
  8
1
  6
CONTINUOUS
 62
     2
 10
-31.00000000001091
 20
29.78990821917614
 30
0.0
 11
-33.5
 21
29.78990821917614
 31
0.0
  0
LINE
  5
5B1
  8
1
  6
CONTINUOUS
 62
     2
 10
-16.50000000001091
 20
29.78990821917614
 30
0.0
 11
-25.00000000001091
 21
29.78990821917614
 31
0.0
  0
LINE
  5
5B2
  8
1
  6
CONTINUOUS
 62
     2
 10
-25.0
 20
30.48109767260939
 30
0.0
 11
-25.00000000001091
 21
30.48109767260939
 31
0.0
  0
LINE
  5
5B3
  8
1
  6
CONTINUOUS
 62
     2
 10
-18.00000000001091
 20
34.79191740082206
 30
0.0
 11
-18.00000000001091
 21
30.48109767260939
 31
0.0
  0
LINE
  5
5B4
  8
1
  6
CONTINUOUS
 62
     2
 10
-15.00000000001091
 20
34.79191740082206
 30
0.0
 11
-15.00000000001091
 21
30.48109767260939
 31
0.0
  0
LINE
  5
5B5
  8
1
  6
CONTINUOUS
 62
     2
 10
-32.00000000001091
 20
34.79191740082388
 30
0.0
 11
-32.00000000001091
 21
34.79191740082206
 31
0.0
  0
LINE
  5
5B6
  8
1
  6
CONTINUOUS
 62
     2
 10
-35.00000000001091
 20
34.79191740082388
 30
0.0
 11
-35.00000000001091
 21
34.79191740082206
 31
0.0
  0
LINE
  5
5B7
  8
1
  6
CONTINUOUS
 62
     2
 10
-35.00000000001091
 20
30.48109767260939
 30
0.0
 11
-35.00000000001091
 21
34.79191740082388
 31
0.0
  0
LINE
  5
5B8
  8
1
  6
CONTINUOUS
 62
     2
 10
-32.00000000001091
 20
30.48109767260939
 30
0.0
 11
-32.00000000001091
 21
34.79191740082388
 31
0.0
  0
LINE
  5
5B9
  8
1
  6
CONTINUOUS
 62
     2
 10
-25.00000000001091
 20
34.79191740082206
 30
0.0
 11
-25.00000000001091
 21
34.79191740082388
 31
0.0
  0
LINE
  5
5BA
  8
1
  6
CONTINUOUS
 62
     7
 10
-31.0
 20
132.2909128100018
 30
0.0
 11
-31.0
 21
157.2899082191761
 31
0.0
  0
LINE
  5
5BB
  8
1
  6
CONTINUOUS
 62
     2
 10
-31.00000000001091
 20
36.79191740082388
 30
0.0
 11
-31.0
 21
36.79191740082388
 31
0.0
  0
LINE
  5
5BC
  8
1
  6
CONTINUOUS
 62
     2
 10
-33.5
 20
36.79191740082388
 30
0.0
 11
-31.0
 21
36.79191740082388
 31
0.0
  0
LINE
  5
5BD
  8
1
  6
CONTINUOUS
 62
     7
 10
-19.0
 20
132.2909128100018
 30
0.0
 11
-19.0
 21
157.2899082191761
 31
0.0
  0
LINE
  5
5BE
  8
1
  6
CONTINUOUS
 62
     2
 10
-25.00000000001091
 20
36.79191740082388
 30
0.0
 11
-16.50000000001091
 21
36.79191740082388
 31
0.0
  0
LINE
  5
5BF
  8
1
  6
CONTINUOUS
 62
     2
 10
-29.5
 20
132.2909128100018
 30
0.0
 11
-29.5
 21
157.2899082191761
 31
0.0
  0
LINE
  5
5C0
  8
1
  6
CONTINUOUS
 62
     2
 10
-20.5
 20
132.2909128100018
 30
0.0
 11
-20.5
 21
157.2899082191761
 31
0.0
  0
LINE
  5
5C1
  8
1
  6
DOT_CENTER
 62
     2
 10
-25.0
 20
228.0
 30
0.0
 11
-25.0
 21
0.0
 31
0.0
  0
LINE
  5
5C2
  8
1
  6
CONTINUOUS
 62
     2
 10
-31.0
 20
43.79392658247161
 30
0.0
 11
-25.0
 21
43.79392658247161
 31
0.0
  0
LINE
  5
5C3
  8
1
  6
CONTINUOUS
 62
     2
 10
-25.0
 20
43.10273712903836
 30
0.0
 11
-25.00000000001091
 21
41.79392658247161
 31
0.0
  0
LINE
  5
5C4
  8
1
  6
CONTINUOUS
 62
     2
 10
-31.0
 20
43.79392658247161
 30
0.0
 11
-31.00000000001091
 21
43.79392658247161
 31
0.0
  0
LINE
  5
5C5
  8
1
  6
CONTINUOUS
 62
     2
 10
-19.0
 20
43.79392658247161
 30
0.0
 11
-16.50000000001091
 21
43.79392658247161
 31
0.0
  0
LINE
  5
5C6
  8
1
  6
CONTINUOUS
 62
     2
 10
-25.00000000001091
 20
43.10273712903836
 30
0.0
 11
-25.0
 21
43.10273712903836
 31
0.0
  0
LINE
  5
5C7
  8
1
  6
CONTINUOUS
 62
     2
 10
-18.00000000001091
 20
43.10273712903836
 30
0.0
 11
-18.00000000001091
 21
41.79392658247161
 31
0.0
  0
LINE
  5
5C8
  8
1
  6
CONTINUOUS
 62
     2
 10
-15.00000000001091
 20
43.10273712903836
 30
0.0
 11
-15.00000000001091
 21
41.79392658247161
 31
0.0
  0
LINE
  5
5C9
  8
1
  6
CONTINUOUS
 62
     2
 10
-32.00000000001091
 20
41.79392658247161
 30
0.0
 11
-32.00000000001091
 21
43.10273712903836
 31
0.0
  0
LINE
  5
5CA
  8
1
  6
CONTINUOUS
 62
     2
 10
-35.00000000001091
 20
41.79392658247161
 30
0.0
 11
-35.00000000001091
 21
43.10273712903836
 31
0.0
  0
LINE
  5
5CB
  8
1
  6
CONTINUOUS
 62
     2
 10
-25.0
 20
36.79191740082388
 30
0.0
 11
-31.00000000001091
 21
36.79191740082388
 31
0.0
  0
LINE
  5
5CC
  8
1
  6
CONTINUOUS
 62
     2
 10
-25.00000000001091
 20
41.79392658247161
 30
0.0
 11
-25.0
 21
37.48310685425713
 31
0.0
  0
LINE
  5
5CD
  8
1
  6
CONTINUOUS
 62
     2
 10
-31.00000000001091
 20
36.79191740082388
 30
0.0
 11
-33.5
 21
36.79191740082388
 31
0.0
  0
LINE
  5
5CE
  8
1
  6
CONTINUOUS
 62
     2
 10
-16.50000000001091
 20
36.79191740082388
 30
0.0
 11
-25.00000000001091
 21
36.79191740082388
 31
0.0
  0
LINE
  5
5CF
  8
1
  6
CONTINUOUS
 62
     2
 10
-25.0
 20
37.48310685425713
 30
0.0
 11
-25.00000000001091
 21
37.48310685425713
 31
0.0
  0
LINE
  5
5D0
  8
1
  6
CONTINUOUS
 62
     2
 10
-18.00000000001091
 20
41.79392658246979
 30
0.0
 11
-18.00000000001091
 21
37.48310685425713
 31
0.0
  0
LINE
  5
5D1
  8
1
  6
CONTINUOUS
 62
     2
 10
-15.00000000001091
 20
41.79392658246979
 30
0.0
 11
-15.00000000001091
 21
37.48310685425713
 31
0.0
  0
LINE
  5
5D2
  8
1
  6
CONTINUOUS
 62
     2
 10
-32.00000000001091
 20
41.79392658247161
 30
0.0
 11
-32.00000000001091
 21
41.79392658246979
 31
0.0
  0
LINE
  5
5D3
  8
1
  6
CONTINUOUS
 62
     2
 10
-35.00000000001091
 20
41.79392658247161
 30
0.0
 11
-35.00000000001091
 21
41.79392658246979
 31
0.0
  0
LINE
  5
5D4
  8
1
  6
CONTINUOUS
 62
     2
 10
-35.00000000001091
 20
37.48310685425713
 30
0.0
 11
-35.00000000001091
 21
41.79392658247161
 31
0.0
  0
LINE
  5
5D5
  8
1
  6
CONTINUOUS
 62
     2
 10
-32.00000000001091
 20
37.48310685425713
 30
0.0
 11
-32.00000000001091
 21
41.79392658247161
 31
0.0
  0
LINE
  5
5D6
  8
1
  6
CONTINUOUS
 62
     2
 10
-25.00000000001091
 20
41.79392658246979
 30
0.0
 11
-25.00000000001091
 21
41.79392658247161
 31
0.0
  0
LINE
  5
5D7
  8
1
  6
CONTINUOUS
 62
     2
 10
-31.00000000001091
 20
43.79392658247161
 30
0.0
 11
-31.0
 21
43.79392658247161
 31
0.0
  0
LINE
  5
5D8
  8
1
  6
CONTINUOUS
 62
     2
 10
-33.5
 20
43.79392658247161
 30
0.0
 11
-31.0
 21
43.79392658247161
 31
0.0
  0
LINE
  5
5D9
  8
1
  6
CONTINUOUS
 62
     2
 10
-25.00000000001091
 20
43.79392658247161
 30
0.0
 11
-19.0
 21
43.79392658247161
 31
0.0
  0
LINE
  5
5DA
  8
1
  6
CONTINUOUS
 62
     2
 10
-31.0
 20
157.2899082191761
 30
0.0
 11
-25.0
 21
157.2899082191761
 31
0.0
  0
LINE
  5
5DB
  8
1
  6
CONTINUOUS
 62
     2
 10
-31.0
 20
157.2899082191761
 30
0.0
 11
-31.00000000001091
 21
157.2899082191761
 31
0.0
  0
LINE
  5
5DC
  8
1
  6
CONTINUOUS
 62
     2
 10
-25.00000000001091
 20
156.5987187657429
 30
0.0
 11
-25.0
 21
156.5987187657429
 31
0.0
  0
LINE
  5
5DD
  8
1
  6
CONTINUOUS
 62
     2
 10
-31.00000000001091
 20
157.2899082191761
 30
0.0
 11
-31.0
 21
157.2899082191761
 31
0.0
  0
LINE
  5
5DE
  8
1
  6
CONTINUOUS
 62
     2
 10
-33.5
 20
157.2899082191761
 30
0.0
 11
-31.0
 21
157.2899082191761
 31
0.0
  0
LINE
  5
5DF
  8
1
  6
CONTINUOUS
 62
     2
 10
-25.00000000001091
 20
157.2899082191761
 30
0.0
 11
-16.50000000001091
 21
157.2899082191761
 31
0.0
  0
LINE
  5
5E0
  8
1
  6
CONTINUOUS
 62
     2
 10
-31.0
 20
164.2919174008239
 30
0.0
 11
-25.0
 21
164.2919174008239
 31
0.0
  0
LINE
  5
5E1
  8
1
  6
CONTINUOUS
 62
     2
 10
-25.0
 20
163.6007279473906
 30
0.0
 11
-25.00000000001091
 21
162.2919174008239
 31
0.0
  0
LINE
  5
5E2
  8
1
  6
CONTINUOUS
 62
     2
 10
-31.0
 20
164.2919174008239
 30
0.0
 11
-31.00000000001091
 21
164.2919174008239
 31
0.0
  0
LINE
  5
5E3
  8
1
  6
CONTINUOUS
 62
     2
 10
-19.0
 20
164.2919174008239
 30
0.0
 11
-16.50000000001091
 21
164.2919174008239
 31
0.0
  0
LINE
  5
5E4
  8
1
  6
CONTINUOUS
 62
     2
 10
-25.00000000001091
 20
163.6007279473906
 30
0.0
 11
-25.0
 21
163.6007279473906
 31
0.0
  0
LINE
  5
5E5
  8
1
  6
CONTINUOUS
 62
     2
 10
-18.00000000001091
 20
163.6007279473906
 30
0.0
 11
-18.00000000001091
 21
162.2919174008239
 31
0.0
  0
LINE
  5
5E6
  8
1
  6
CONTINUOUS
 62
     2
 10
-15.00000000001091
 20
163.6007279473906
 30
0.0
 11
-15.00000000001091
 21
162.2919174008239
 31
0.0
  0
LINE
  5
5E7
  8
1
  6
CONTINUOUS
 62
     2
 10
-32.00000000001091
 20
162.2919174008239
 30
0.0
 11
-32.00000000001091
 21
163.6007279473906
 31
0.0
  0
LINE
  5
5E8
  8
1
  6
CONTINUOUS
 62
     2
 10
-35.00000000001091
 20
162.2919174008239
 30
0.0
 11
-35.00000000001091
 21
163.6007279473906
 31
0.0
  0
LINE
  5
5E9
  8
1
  6
CONTINUOUS
 62
     2
 10
-25.0
 20
157.2899082191761
 30
0.0
 11
-31.00000000001091
 21
157.2899082191761
 31
0.0
  0
LINE
  5
5EA
  8
1
  6
CONTINUOUS
 62
     2
 10
-25.00000000001091
 20
162.2919174008239
 30
0.0
 11
-25.0
 21
157.9810976726094
 31
0.0
  0
LINE
  5
5EB
  8
1
  6
CONTINUOUS
 62
     2
 10
-31.00000000001091
 20
157.2899082191761
 30
0.0
 11
-33.5
 21
157.2899082191761
 31
0.0
  0
LINE
  5
5EC
  8
1
  6
CONTINUOUS
 62
     2
 10
-16.50000000001091
 20
157.2899082191761
 30
0.0
 11
-25.00000000001091
 21
157.2899082191761
 31
0.0
  0
LINE
  5
5ED
  8
1
  6
CONTINUOUS
 62
     2
 10
-25.0
 20
157.9810976726094
 30
0.0
 11
-25.00000000001091
 21
157.9810976726094
 31
0.0
  0
LINE
  5
5EE
  8
1
  6
CONTINUOUS
 62
     2
 10
-18.00000000001091
 20
162.2919174008221
 30
0.0
 11
-18.00000000001091
 21
157.9810976726094
 31
0.0
  0
LINE
  5
5EF
  8
1
  6
CONTINUOUS
 62
     2
 10
-15.00000000001091
 20
162.2919174008221
 30
0.0
 11
-15.00000000001091
 21
157.9810976726094
 31
0.0
  0
LINE
  5
5F0
  8
1
  6
CONTINUOUS
 62
     2
 10
-32.00000000001091
 20
162.2919174008239
 30
0.0
 11
-32.00000000001091
 21
162.2919174008221
 31
0.0
  0
LINE
  5
5F1
  8
1
  6
CONTINUOUS
 62
     2
 10
-35.00000000001091
 20
162.2919174008239
 30
0.0
 11
-35.00000000001091
 21
162.2919174008221
 31
0.0
  0
LINE
  5
5F2
  8
1
  6
CONTINUOUS
 62
     2
 10
-35.00000000001091
 20
157.9810976726094
 30
0.0
 11
-35.00000000001091
 21
162.2919174008239
 31
0.0
  0
LINE
  5
5F3
  8
1
  6
CONTINUOUS
 62
     2
 10
-32.00000000001091
 20
157.9810976726094
 30
0.0
 11
-32.00000000001091
 21
162.2919174008239
 31
0.0
  0
LINE
  5
5F4
  8
1
  6
CONTINUOUS
 62
     2
 10
-25.00000000001091
 20
162.2919174008221
 30
0.0
 11
-25.00000000001091
 21
162.2919174008239
 31
0.0
  0
LINE
  5
5F5
  8
1
  6
CONTINUOUS
 62
     2
 10
-31.00000000001091
 20
164.2919174008239
 30
0.0
 11
-31.0
 21
164.2919174008239
 31
0.0
  0
LINE
  5
5F6
  8
1
  6
CONTINUOUS
 62
     2
 10
-33.5
 20
164.2919174008239
 30
0.0
 11
-31.0
 21
164.2919174008239
 31
0.0
  0
LINE
  5
5F7
  8
1
  6
CONTINUOUS
 62
     2
 10
-25.00000000001091
 20
164.2919174008239
 30
0.0
 11
-19.0
 21
164.2919174008239
 31
0.0
  0
LINE
  5
5F8
  8
1
  6
CONTINUOUS
 62
     7
 10
-19.0
 20
43.79392658247161
 30
0.0
 11
-19.0
 21
81.29091281000183
 31
0.0
  0
LINE
  5
5F9
  8
1
  6
CONTINUOUS
 62
     2
 10
-20.5
 20
43.79392658247161
 30
0.0
 11
-20.5
 21
81.29091281000183
 31
0.0
  0
LINE
  5
5FA
  8
1
  6
CONTINUOUS
 62
     2
 10
-29.5
 20
43.73945974030175
 30
0.0
 11
-29.5
 21
81.29091281000183
 31
0.0
  0
LINE
  5
5FB
  8
1
  6
CONTINUOUS
 62
     7
 10
-31.00000000001091
 20
43.79392658247161
 30
0.0
 11
-31.00000000001091
 21
81.29091281000183
 31
0.0
  0
ARC
  5
5FC
  8
1
  6
CONTINUOUS
 62
     7
 10
-30.00406849287174
 20
29.66441291056617
 30
0.0
 40
1.999999994056685
 50
176.3447865411232
 51
223.3338153368801
  0
ARC
  5
5FD
  8
1
  6
CONTINUOUS
 62
     7
 10
-19.99593150715009
 20
29.66441291056617
 30
0.0
 40
1.999999994055714
 50
316.6661846631202
 51
3.655213458877181
  0
ARC
  5
5FE
  8
1
  6
CONTINUOUS
 62
     2
 10
-33.5
 20
34.81869367280888
 30
0.0
 40
1.973223728015
 50
90.0
 51
139.4798358560147
  0
ARC
  5
5FF
  8
1
  6
CONTINUOUS
 62
     2
 10
-33.5
 20
34.81869367280888
 30
0.0
 40
1.973223728116593
 50
40.52016414398905
 51
90.0
  0
ARC
  5
600
  8
1
  6
CONTINUOUS
 62
     2
 10
-28.5
 20
27.58478699879379
 30
0.0
 40
9.207130402030177
 50
67.65763540341926
 51
112.3423645965808
  0
ARC
  5
601
  8
1
  6
CONTINUOUS
 62
     2
 10
-16.50000000001091
 20
34.81869367280888
 30
0.0
 40
1.973223728116593
 50
40.52016414398963
 51
90.0
  0
ARC
  5
602
  8
1
  6
CONTINUOUS
 62
     2
 10
-16.50000000001091
 20
34.81869367280888
 30
0.0
 40
1.973223728015
 50
90.0
 51
139.4798358560146
  0
ARC
  5
603
  8
1
  6
CONTINUOUS
 62
     2
 10
-21.50000000001091
 20
27.58478699879379
 30
0.0
 40
9.207130402030177
 50
67.65763540341926
 51
112.3423645965808
  0
ARC
  5
604
  8
1
  6
CONTINUOUS
 62
     2
 10
-33.5
 20
31.76313194719114
 30
0.0
 40
1.973223728116593
 50
220.5201641439896
 51
270.0
  0
ARC
  5
605
  8
1
  6
CONTINUOUS
 62
     2
 10
-33.5
 20
31.76313194719114
 30
0.0
 40
1.973223728015
 50
270.0
 51
319.4798358560145
  0
ARC
  5
606
  8
1
  6
CONTINUOUS
 62
     2
 10
-28.5
 20
38.99703862120623
 30
0.0
 40
9.207130402030177
 50
247.6576354034191
 51
292.3423645965808
  0
ARC
  5
607
  8
1
  6
CONTINUOUS
 62
     2
 10
-16.50000000001091
 20
31.76313194719114
 30
0.0
 40
1.973223728015
 50
270.0
 51
319.4798358560145
  0
ARC
  5
608
  8
1
  6
CONTINUOUS
 62
     2
 10
-16.50000000001091
 20
31.76313194719114
 30
0.0
 40
1.973223728116593
 50
220.5201641439894
 51
270.0
  0
ARC
  5
609
  8
1
  6
CONTINUOUS
 62
     2
 10
-21.50000000001091
 20
38.99703862120623
 30
0.0
 40
9.207130402030177
 50
247.6576354034191
 51
292.3423645965808
  0
ARC
  5
60A
  8
1
  6
CONTINUOUS
 62
     2
 10
-33.5
 20
41.82070285445661
 30
0.0
 40
1.973223728015
 50
90.0
 51
139.4798358560146
  0
ARC
  5
60B
  8
1
  6
CONTINUOUS
 62
     2
 10
-33.5
 20
41.82070285445661
 30
0.0
 40
1.973223728116593
 50
40.52016414398934
 51
90.0
  0
ARC
  5
60C
  8
1
  6
CONTINUOUS
 62
     2
 10
-28.5
 20
34.58679618044152
 30
0.0
 40
9.207130402030177
 50
67.65763540341933
 51
112.3423645965809
  0
ARC
  5
60D
  8
1
  6
CONTINUOUS
 62
     2
 10
-16.50000000001091
 20
41.82070285445661
 30
0.0
 40
1.973223728116593
 50
40.52016414398934
 51
90.0
  0
ARC
  5
60E
  8
1
  6
CONTINUOUS
 62
     2
 10
-16.50000000001091
 20
41.82070285445661
 30
0.0
 40
1.973223728015
 50
90.0
 51
139.4798358560147
  0
ARC
  5
60F
  8
1
  6
CONTINUOUS
 62
     2
 10
-21.50000000001091
 20
34.58679618044152
 30
0.0
 40
9.207130402030177
 50
67.65763540341918
 51
112.3423645965808
  0
ARC
  5
610
  8
1
  6
CONTINUOUS
 62
     2
 10
-33.5
 20
38.76514112883888
 30
0.0
 40
1.973223728116593
 50
220.5201641439899
 51
270.0
  0
ARC
  5
611
  8
1
  6
CONTINUOUS
 62
     2
 10
-33.5
 20
38.76514112883888
 30
0.0
 40
1.973223728015
 50
270.0
 51
319.4798358560147
  0
ARC
  5
612
  8
1
  6
CONTINUOUS
 62
     2
 10
-28.5
 20
45.99904780285397
 30
0.0
 40
9.207130402030177
 50
247.6576354034191
 51
292.3423645965808
  0
ARC
  5
613
  8
1
  6
CONTINUOUS
 62
     2
 10
-16.50000000001091
 20
38.76514112883888
 30
0.0
 40
1.973223728015
 50
270.0
 51
319.4798358560146
  0
ARC
  5
614
  8
1
  6
CONTINUOUS
 62
     2
 10
-16.50000000001091
 20
38.76514112883888
 30
0.0
 40
1.973223728116593
 50
220.5201641439899
 51
270.0
  0
ARC
  5
615
  8
1
  6
CONTINUOUS
 62
     2
 10
-21.50000000001091
 20
45.99904780285397
 30
0.0
 40
9.207130402030177
 50
247.6576354034191
 51
292.3423645965808
  0
ARC
  5
616
  8
1
  6
CONTINUOUS
 62
     2
 10
-33.5
 20
162.3186936728089
 30
0.0
 40
1.973223728015
 50
90.0
 51
139.4798358560147
  0
ARC
  5
617
  8
1
  6
CONTINUOUS
 62
     2
 10
-33.5
 20
162.3186936728089
 30
0.0
 40
1.973223728116593
 50
40.52016414398943
 51
90.0
  0
ARC
  5
618
  8
1
  6
CONTINUOUS
 62
     2
 10
-28.5
 20
155.0847869987938
 30
0.0
 40
9.207130402030177
 50
67.65763540341918
 51
112.3423645965808
  0
ARC
  5
619
  8
1
  6
CONTINUOUS
 62
     2
 10
-16.50000000001091
 20
162.3186936728089
 30
0.0
 40
1.973223728116593
 50
40.52016414398949
 51
90.0
  0
ARC
  5
61A
  8
1
  6
CONTINUOUS
 62
     2
 10
-16.50000000001091
 20
162.3186936728089
 30
0.0
 40
1.973223728015
 50
90.0
 51
139.4798358560151
  0
ARC
  5
61B
  8
1
  6
CONTINUOUS
 62
     2
 10
-21.50000000001091
 20
155.0847869987938
 30
0.0
 40
9.207130402030177
 50
67.65763540341918
 51
112.3423645965809
  0
ARC
  5
61C
  8
1
  6
CONTINUOUS
 62
     2
 10
-33.5
 20
159.2631319471911
 30
0.0
 40
1.973223728116593
 50
220.5201641439902
 51
270.0
  0
ARC
  5
61D
  8
1
  6
CONTINUOUS
 62
     2
 10
-33.5
 20
159.2631319471911
 30
0.0
 40
1.973223728015
 50
270.0
 51
319.4798358560137
  0
ARC
  5
61E
  8
1
  6
CONTINUOUS
 62
     2
 10
-28.5
 20
166.4970386212062
 30
0.0
 40
9.207130402030177
 50
247.6576354034191
 51
292.3423645965808
  0
ARC
  5
61F
  8
1
  6
CONTINUOUS
 62
     2
 10
-16.50000000001091
 20
159.2631319471911
 30
0.0
 40
1.973223728015
 50
270.0
 51
319.4798358560145
  0
ARC
  5
620
  8
1
  6
CONTINUOUS
 62
     2
 10
-16.50000000001091
 20
159.2631319471911
 30
0.0
 40
1.973223728116593
 50
220.5201641439902
 51
270.0
  0
ARC
  5
621
  8
1
  6
CONTINUOUS
 62
     2
 10
-21.50000000001091
 20
166.4970386212062
 30
0.0
 40
9.207130402030177
 50
247.6576354034192
 51
292.3423645965808
  0
ENDBLK
  5
623
  8
0
  0
BLOCK
  8
0
  2
_9__27
 70
     0
 10
0.0
 20
0.0
 30
0.0
  3
_9__27
  1

  0
LINE
  5
626
  8
1
  6
CONTINUOUS
 62
     2
 10
-21.0
 20
40.00274139892645
 30
0.0
 11
-42.0
 21
39.99999999963802
 31
0.0
  0
LINE
  5
627
  8
1
  6
CONTINUOUS
 62
     2
 10
-18.41966749108178
 20
33.51044153884686
 30
0.0
 11
-18.41966749108178
 21
37.08022224727938
 31
0.0
  0
LINE
  5
628
  8
1
  6
CONTINUOUS
 62
     2
 10
-13.22351506849009
 20
32.40974973902667
 30
0.0
 11
-13.22351506849009
 21
37.08022224727938
 31
0.0
  0
LINE
  5
629
  8
1
  6
CONTINUOUS
 62
     2
 10
0.0
 20
29.25443324619664
 30
0.0
 11
0.0
 21
33.11060336087394
 31
0.0
  0
LINE
  5
62A
  8
1
  6
CONTINUOUS
 62
     2
 10
-44.58033250892186
 20
35.02503295418683
 30
0.0
 11
-44.58033250892186
 21
32.85002645895656
 31
0.0
  0
LINE
  5
62B
  8
1
  6
CONTINUOUS
 62
     2
 10
-49.77648493150991
 20
37.08022224727938
 30
0.0
 11
-49.77648493150991
 21
32.48312919234559
 31
0.0
  0
LINE
  5
62C
  8
1
  6
CONTINUOUS
 62
     2
 10
-63.0
 20
33.1106033608703
 30
0.0
 11
-63.0
 21
30.35512504601684
 31
0.0
  0
ARC
  5
62D
  8
1
  6
CONTINUOUS
 62
     2
 10
-8.048643603342498
 20
34.04366082047272
 30
0.0
 40
5.99999999830185
 50
124.9099658427235
 51
149.5960269993365
  0
ARC
  5
62E
  8
1
  6
CONTINUOUS
 62
     2
 10
-23.59453895622937
 20
34.04366082047272
 30
0.0
 40
5.999999998297403
 50
30.4039730006667
 51
83.08373458229256
  0
ARC
  5
62F
  8
1
  6
CONTINUOUS
 62
     2
 10
-21.51831420496092
 20
-8.997258601073554
 30
0.0
 40
48.99999999999896
 50
66.26093160690186
 51
89.3939230563067
  0
ARC
  5
630
  8
1
  6
CONTINUOUS
 62
     2
 10
-41.48168579503181
 20
-8.997258601073554
 30
0.0
 40
49.00000000000078
 50
90.60607694370184
 51
113.7390683931108
  0
ARC
  5
631
  8
1
  6
CONTINUOUS
 62
     2
 10
-54.95135639666114
 20
34.04366082047272
 30
0.0
 40
5.999999998300541
 50
30.4039730006486
 51
55.09003415726665
  0
ARC
  5
632
  8
1
  6
CONTINUOUS
 62
     2
 10
-37.32991962664164
 20
33.01606617392645
 30
0.0
 40
7.523591860793247
 50
111.833085703342
 51
164.5128472850863
  0
ARC
  5
633
  8
1
  6
CONTINUOUS
 62
     2
 10
-3.0
 20
33.11060336087394
 30
0.0
 40
3.0
 50
0.0
 51
66.26093160695123
  0
ARC
  5
634
  8
1
  6
CONTINUOUS
 62
     2
 10
-60.0
 20
33.1106033608703
 30
0.0
 40
3.000000000001196
 50
113.7390683931126
 51
179.9999999999999
  0
ENDBLK
  5
636
  8
0
  0
BLOCK
  8
0
  2
_2__28
 70
     0
 10
0.0
 20
0.0
 30
0.0
  3
_2__28
  1

  0
LINE
  5
639
  8
1
  6
CONTINUOUS
 62
     7
 10
31.0
 20
81.29091281000183
 30
0.0
 11
31.00000000000728
 21
43.79392658247161
 31
0.0
  0
LINE
  5
63A
  8
1
  6
CONTINUOUS
 62
     2
 10
29.5
 20
81.29091281000183
 30
0.0
 11
29.5
 21
43.73945974030175
 31
0.0
  0
LINE
  5
63B
  8
1
  6
CONTINUOUS
 62
     2
 10
20.5
 20
81.29091281000183
 30
0.0
 11
20.5
 21
43.79392658247161
 31
0.0
  0
LINE
  5
63C
  8
1
  6
CONTINUOUS
 62
     7
 10
19.0
 20
81.29091281000183
 30
0.0
 11
19.0
 21
43.79392658247161
 31
0.0
  0
LINE
  5
63D
  8
1
  6
CONTINUOUS
 62
     2
 10
19.0
 20
164.2919174008239
 30
0.0
 11
25.00000000000728
 21
164.2919174008239
 31
0.0
  0
LINE
  5
63E
  8
1
  6
CONTINUOUS
 62
     2
 10
31.0
 20
164.2919174008239
 30
0.0
 11
33.5
 21
164.2919174008239
 31
0.0
  0
LINE
  5
63F
  8
1
  6
CONTINUOUS
 62
     2
 10
31.0
 20
164.2919174008239
 30
0.0
 11
31.00000000000728
 21
164.2919174008239
 31
0.0
  0
LINE
  5
640
  8
1
  6
CONTINUOUS
 62
     2
 10
25.00000000000728
 20
162.2919174008239
 30
0.0
 11
25.00000000000728
 21
162.2919174008221
 31
0.0
  0
LINE
  5
641
  8
1
  6
CONTINUOUS
 62
     2
 10
32.00000000000728
 20
162.2919174008239
 30
0.0
 11
32.00000000000728
 21
157.9810976726094
 31
0.0
  0
LINE
  5
642
  8
1
  6
CONTINUOUS
 62
     2
 10
35.00000000000728
 20
162.2919174008239
 30
0.0
 11
35.00000000000728
 21
157.9810976726094
 31
0.0
  0
LINE
  5
643
  8
1
  6
CONTINUOUS
 62
     2
 10
35.00000000000728
 20
162.2919174008221
 30
0.0
 11
35.00000000000728
 21
162.2919174008239
 31
0.0
  0
LINE
  5
644
  8
1
  6
CONTINUOUS
 62
     2
 10
32.00000000000728
 20
162.2919174008221
 30
0.0
 11
32.00000000000728
 21
162.2919174008239
 31
0.0
  0
LINE
  5
645
  8
1
  6
CONTINUOUS
 62
     2
 10
15.00000000000728
 20
157.9810976726094
 30
0.0
 11
15.00000000000728
 21
162.2919174008221
 31
0.0
  0
LINE
  5
646
  8
1
  6
CONTINUOUS
 62
     2
 10
18.00000000000728
 20
157.9810976726094
 30
0.0
 11
18.00000000000728
 21
162.2919174008221
 31
0.0
  0
LINE
  5
647
  8
1
  6
CONTINUOUS
 62
     2
 10
25.00000000000728
 20
157.9810976726094
 30
0.0
 11
25.0
 21
157.9810976726094
 31
0.0
  0
LINE
  5
648
  8
1
  6
CONTINUOUS
 62
     2
 10
25.00000000000728
 20
157.2899082191761
 30
0.0
 11
16.50000000000728
 21
157.2899082191761
 31
0.0
  0
LINE
  5
649
  8
1
  6
CONTINUOUS
 62
     2
 10
33.5
 20
157.2899082191761
 30
0.0
 11
31.00000000000728
 21
157.2899082191761
 31
0.0
  0
LINE
  5
64A
  8
1
  6
CONTINUOUS
 62
     2
 10
25.0
 20
157.9810976726094
 30
0.0
 11
25.00000000000728
 21
162.2919174008239
 31
0.0
  0
LINE
  5
64B
  8
1
  6
CONTINUOUS
 62
     2
 10
31.00000000000728
 20
157.2899082191761
 30
0.0
 11
25.0
 21
157.2899082191761
 31
0.0
  0
LINE
  5
64C
  8
1
  6
CONTINUOUS
 62
     2
 10
35.00000000000728
 20
163.6007279473906
 30
0.0
 11
35.00000000000728
 21
162.2919174008239
 31
0.0
  0
LINE
  5
64D
  8
1
  6
CONTINUOUS
 62
     2
 10
32.00000000000728
 20
163.6007279473906
 30
0.0
 11
32.00000000000728
 21
162.2919174008239
 31
0.0
  0
LINE
  5
64E
  8
1
  6
CONTINUOUS
 62
     2
 10
15.00000000000728
 20
162.2919174008239
 30
0.0
 11
15.00000000000728
 21
163.6007279473906
 31
0.0
  0
LINE
  5
64F
  8
1
  6
CONTINUOUS
 62
     2
 10
18.00000000000728
 20
162.2919174008239
 30
0.0
 11
18.00000000000728
 21
163.6007279473906
 31
0.0
  0
LINE
  5
650
  8
1
  6
CONTINUOUS
 62
     2
 10
25.0
 20
163.6007279473906
 30
0.0
 11
25.00000000000728
 21
163.6007279473906
 31
0.0
  0
LINE
  5
651
  8
1
  6
CONTINUOUS
 62
     2
 10
16.50000000000728
 20
164.2919174008239
 30
0.0
 11
19.0
 21
164.2919174008239
 31
0.0
  0
LINE
  5
652
  8
1
  6
CONTINUOUS
 62
     2
 10
31.00000000000728
 20
164.2919174008239
 30
0.0
 11
31.0
 21
164.2919174008239
 31
0.0
  0
LINE
  5
653
  8
1
  6
CONTINUOUS
 62
     2
 10
25.00000000000728
 20
162.2919174008239
 30
0.0
 11
25.0
 21
163.6007279473906
 31
0.0
  0
LINE
  5
654
  8
1
  6
CONTINUOUS
 62
     2
 10
25.0
 20
164.2919174008239
 30
0.0
 11
31.0
 21
164.2919174008239
 31
0.0
  0
LINE
  5
655
  8
1
  6
CONTINUOUS
 62
     2
 10
16.50000000000728
 20
157.2899082191761
 30
0.0
 11
25.00000000000728
 21
157.2899082191761
 31
0.0
  0
LINE
  5
656
  8
1
  6
CONTINUOUS
 62
     2
 10
31.0
 20
157.2899082191761
 30
0.0
 11
33.5
 21
157.2899082191761
 31
0.0
  0
LINE
  5
657
  8
1
  6
CONTINUOUS
 62
     2
 10
31.0
 20
157.2899082191761
 30
0.0
 11
31.00000000000728
 21
157.2899082191761
 31
0.0
  0
LINE
  5
658
  8
1
  6
CONTINUOUS
 62
     2
 10
25.0
 20
156.5987187657429
 30
0.0
 11
25.00000000000728
 21
156.5987187657429
 31
0.0
  0
LINE
  5
659
  8
1
  6
CONTINUOUS
 62
     2
 10
31.00000000000728
 20
157.2899082191761
 30
0.0
 11
31.0
 21
157.2899082191761
 31
0.0
  0
LINE
  5
65A
  8
1
  6
CONTINUOUS
 62
     2
 10
25.0
 20
157.2899082191761
 30
0.0
 11
31.0
 21
157.2899082191761
 31
0.0
  0
LINE
  5
65B
  8
1
  6
CONTINUOUS
 62
     2
 10
19.0
 20
43.79392658247161
 30
0.0
 11
25.00000000000728
 21
43.79392658247161
 31
0.0
  0
LINE
  5
65C
  8
1
  6
CONTINUOUS
 62
     2
 10
31.0
 20
43.79392658247161
 30
0.0
 11
33.5
 21
43.79392658247161
 31
0.0
  0
LINE
  5
65D
  8
1
  6
CONTINUOUS
 62
     2
 10
31.0
 20
43.79392658247161
 30
0.0
 11
31.00000000000728
 21
43.79392658247161
 31
0.0
  0
LINE
  5
65E
  8
1
  6
CONTINUOUS
 62
     2
 10
25.00000000000728
 20
41.79392658247161
 30
0.0
 11
25.00000000000728
 21
41.79392658246979
 31
0.0
  0
LINE
  5
65F
  8
1
  6
CONTINUOUS
 62
     2
 10
32.00000000000728
 20
41.79392658247161
 30
0.0
 11
32.00000000000728
 21
37.48310685425713
 31
0.0
  0
LINE
  5
660
  8
1
  6
CONTINUOUS
 62
     2
 10
35.00000000000728
 20
41.79392658247161
 30
0.0
 11
35.00000000000728
 21
37.48310685425713
 31
0.0
  0
LINE
  5
661
  8
1
  6
CONTINUOUS
 62
     2
 10
35.00000000000728
 20
41.79392658246979
 30
0.0
 11
35.00000000000728
 21
41.79392658247161
 31
0.0
  0
LINE
  5
662
  8
1
  6
CONTINUOUS
 62
     2
 10
32.00000000000728
 20
41.79392658246979
 30
0.0
 11
32.00000000000728
 21
41.79392658247161
 31
0.0
  0
LINE
  5
663
  8
1
  6
CONTINUOUS
 62
     2
 10
15.00000000000728
 20
37.48310685425713
 30
0.0
 11
15.00000000000728
 21
41.79392658246979
 31
0.0
  0
LINE
  5
664
  8
1
  6
CONTINUOUS
 62
     2
 10
18.00000000000728
 20
37.48310685425713
 30
0.0
 11
18.00000000000728
 21
41.79392658246979
 31
0.0
  0
LINE
  5
665
  8
1
  6
CONTINUOUS
 62
     2
 10
25.00000000000728
 20
37.48310685425713
 30
0.0
 11
25.0
 21
37.48310685425713
 31
0.0
  0
LINE
  5
666
  8
1
  6
CONTINUOUS
 62
     2
 10
25.00000000000728
 20
36.79191740082388
 30
0.0
 11
16.50000000000728
 21
36.79191740082388
 31
0.0
  0
LINE
  5
667
  8
1
  6
CONTINUOUS
 62
     2
 10
33.5
 20
36.79191740082388
 30
0.0
 11
31.00000000000728
 21
36.79191740082388
 31
0.0
  0
LINE
  5
668
  8
1
  6
CONTINUOUS
 62
     2
 10
25.0
 20
37.48310685425713
 30
0.0
 11
25.00000000000728
 21
41.79392658247161
 31
0.0
  0
LINE
  5
669
  8
1
  6
CONTINUOUS
 62
     2
 10
31.00000000000728
 20
36.79191740082388
 30
0.0
 11
25.0
 21
36.79191740082388
 31
0.0
  0
LINE
  5
66A
  8
1
  6
CONTINUOUS
 62
     2
 10
35.00000000000728
 20
43.10273712903836
 30
0.0
 11
35.00000000000728
 21
41.79392658247161
 31
0.0
  0
LINE
  5
66B
  8
1
  6
CONTINUOUS
 62
     2
 10
32.00000000000728
 20
43.10273712903836
 30
0.0
 11
32.00000000000728
 21
41.79392658247161
 31
0.0
  0
LINE
  5
66C
  8
1
  6
CONTINUOUS
 62
     2
 10
15.00000000000728
 20
41.79392658247161
 30
0.0
 11
15.00000000000728
 21
43.10273712903836
 31
0.0
  0
LINE
  5
66D
  8
1
  6
CONTINUOUS
 62
     2
 10
18.00000000000728
 20
41.79392658247161
 30
0.0
 11
18.00000000000728
 21
43.10273712903836
 31
0.0
  0
LINE
  5
66E
  8
1
  6
CONTINUOUS
 62
     2
 10
25.0
 20
43.10273712903836
 30
0.0
 11
25.00000000000728
 21
43.10273712903836
 31
0.0
  0
LINE
  5
66F
  8
1
  6
CONTINUOUS
 62
     2
 10
16.50000000000728
 20
43.79392658247161
 30
0.0
 11
19.0
 21
43.79392658247161
 31
0.0
  0
LINE
  5
670
  8
1
  6
CONTINUOUS
 62
     2
 10
31.00000000000728
 20
43.79392658247161
 30
0.0
 11
31.0
 21
43.79392658247161
 31
0.0
  0
LINE
  5
671
  8
1
  6
CONTINUOUS
 62
     2
 10
25.00000000000728
 20
41.79392658247161
 30
0.0
 11
25.0
 21
43.10273712903836
 31
0.0
  0
LINE
  5
672
  8
1
  6
CONTINUOUS
 62
     2
 10
25.0
 20
43.79392658247161
 30
0.0
 11
31.0
 21
43.79392658247161
 31
0.0
  0
LINE
  5
673
  8
1
  6
DOT_CENTER
 62
     2
 10
25.0
 20
0.0
 30
0.0
 11
25.0
 21
228.0
 31
0.0
  0
LINE
  5
674
  8
1
  6
CONTINUOUS
 62
     2
 10
20.5
 20
157.2899082191761
 30
0.0
 11
20.5
 21
132.2909128100018
 31
0.0
  0
LINE
  5
675
  8
1
  6
CONTINUOUS
 62
     2
 10
29.5
 20
157.2899082191761
 30
0.0
 11
29.5
 21
132.2909128100018
 31
0.0
  0
LINE
  5
676
  8
1
  6
CONTINUOUS
 62
     2
 10
16.50000000000728
 20
36.79191740082388
 30
0.0
 11
25.00000000000728
 21
36.79191740082388
 31
0.0
  0
LINE
  5
677
  8
1
  6
CONTINUOUS
 62
     7
 10
19.0
 20
157.2899082191761
 30
0.0
 11
19.0
 21
132.2909128100018
 31
0.0
  0
LINE
  5
678
  8
1
  6
CONTINUOUS
 62
     2
 10
31.0
 20
36.79191740082388
 30
0.0
 11
33.5
 21
36.79191740082388
 31
0.0
  0
LINE
  5
679
  8
1
  6
CONTINUOUS
 62
     2
 10
31.0
 20
36.79191740082388
 30
0.0
 11
31.00000000000728
 21
36.79191740082388
 31
0.0
  0
LINE
  5
67A
  8
1
  6
CONTINUOUS
 62
     7
 10
31.0
 20
157.2899082191761
 30
0.0
 11
31.0
 21
132.2909128100018
 31
0.0
  0
LINE
  5
67B
  8
1
  6
CONTINUOUS
 62
     2
 10
25.00000000000728
 20
34.79191740082388
 30
0.0
 11
25.00000000000728
 21
34.79191740082206
 31
0.0
  0
LINE
  5
67C
  8
1
  6
CONTINUOUS
 62
     2
 10
32.00000000000728
 20
34.79191740082388
 30
0.0
 11
32.00000000000728
 21
30.48109767260939
 31
0.0
  0
LINE
  5
67D
  8
1
  6
CONTINUOUS
 62
     2
 10
35.00000000000728
 20
34.79191740082388
 30
0.0
 11
35.00000000000728
 21
30.48109767260939
 31
0.0
  0
LINE
  5
67E
  8
1
  6
CONTINUOUS
 62
     2
 10
35.00000000000728
 20
34.79191740082206
 30
0.0
 11
35.00000000000728
 21
34.79191740082388
 31
0.0
  0
LINE
  5
67F
  8
1
  6
CONTINUOUS
 62
     2
 10
32.00000000000728
 20
34.79191740082206
 30
0.0
 11
32.00000000000728
 21
34.79191740082388
 31
0.0
  0
LINE
  5
680
  8
1
  6
CONTINUOUS
 62
     2
 10
15.00000000000728
 20
30.48109767260939
 30
0.0
 11
15.00000000000728
 21
34.79191740082206
 31
0.0
  0
LINE
  5
681
  8
1
  6
CONTINUOUS
 62
     2
 10
18.00000000000728
 20
30.48109767260939
 30
0.0
 11
18.00000000000728
 21
34.79191740082206
 31
0.0
  0
LINE
  5
682
  8
1
  6
CONTINUOUS
 62
     2
 10
25.00000000000728
 20
30.48109767260939
 30
0.0
 11
25.0
 21
30.48109767260939
 31
0.0
  0
LINE
  5
683
  8
1
  6
CONTINUOUS
 62
     2
 10
25.00000000000728
 20
29.78990821917614
 30
0.0
 11
16.50000000000728
 21
29.78990821917614
 31
0.0
  0
LINE
  5
684
  8
1
  6
CONTINUOUS
 62
     2
 10
33.5
 20
29.78990821917614
 30
0.0
 11
31.00000000000728
 21
29.78990821917614
 31
0.0
  0
LINE
  5
685
  8
1
  6
CONTINUOUS
 62
     2
 10
25.0
 20
30.48109767260939
 30
0.0
 11
25.00000000000728
 21
34.79191740082388
 31
0.0
  0
LINE
  5
686
  8
1
  6
CONTINUOUS
 62
     2
 10
31.00000000000728
 20
29.78990821917614
 30
0.0
 11
25.0
 21
29.78990821917614
 31
0.0
  0
LINE
  5
687
  8
1
  6
CONTINUOUS
 62
     2
 10
35.00000000000728
 20
36.10072794739062
 30
0.0
 11
35.00000000000728
 21
34.79191740082388
 31
0.0
  0
LINE
  5
688
  8
1
  6
CONTINUOUS
 62
     2
 10
32.00000000000728
 20
36.10072794739062
 30
0.0
 11
32.00000000000728
 21
34.79191740082388
 31
0.0
  0
LINE
  5
689
  8
1
  6
CONTINUOUS
 62
     2
 10
15.00000000000728
 20
34.79191740082388
 30
0.0
 11
15.00000000000728
 21
36.10072794739062
 31
0.0
  0
LINE
  5
68A
  8
1
  6
CONTINUOUS
 62
     2
 10
18.00000000000728
 20
34.79191740082388
 30
0.0
 11
18.00000000000728
 21
36.10072794739062
 31
0.0
  0
LINE
  5
68B
  8
1
  6
CONTINUOUS
 62
     2
 10
25.0
 20
36.10072794739062
 30
0.0
 11
25.00000000000728
 21
36.10072794739062
 31
0.0
  0
LINE
  5
68C
  8
1
  6
CONTINUOUS
 62
     2
 10
31.00000000000728
 20
36.79191740082388
 30
0.0
 11
31.0
 21
36.79191740082388
 31
0.0
  0
LINE
  5
68D
  8
1
  6
CONTINUOUS
 62
     2
 10
25.00000000000728
 20
34.79191740082388
 30
0.0
 11
25.0
 21
36.10072794739062
 31
0.0
  0
LINE
  5
68E
  8
1
  6
CONTINUOUS
 62
     2
 10
25.0
 20
36.79191740082388
 30
0.0
 11
31.0
 21
36.79191740082388
 31
0.0
  0
LINE
  5
68F
  8
1
  6
CONTINUOUS
 62
     7
 10
5.5
 20
8.291917400823877
 30
0.0
 11
44.5
 21
8.291917400823877
 31
0.0
  0
LINE
  5
690
  8
1
  6
CONTINUOUS
 62
     7
 10
5.5
 20
8.291917400823877
 30
0.0
 11
5.5
 21
11.29191740082388
 31
0.0
  0
LINE
  5
691
  8
1
  6
CONTINUOUS
 62
     7
 10
44.5
 20
11.29191740082388
 30
0.0
 11
5.0
 21
11.29191740082388
 31
0.0
  0
LINE
  5
692
  8
1
  6
CONTINUOUS
 62
     7
 10
44.5
 20
11.29191740082388
 30
0.0
 11
44.5
 21
8.291917400823877
 31
0.0
  0
LINE
  5
693
  8
1
  6
CONTINUOUS
 62
     2
 10
45.0
 20
14.29191740082388
 30
0.0
 11
5.0
 21
14.29191740082388
 31
0.0
  0
LINE
  5
694
  8
1
  6
CONTINUOUS
 62
     7
 10
5.0
 20
14.29191740082388
 30
0.0
 11
15.26669058629705
 21
28.29191740082388
 31
0.0
  0
LINE
  5
695
  8
1
  6
CONTINUOUS
 62
     7
 10
5.0
 20
11.29191740082388
 30
0.0
 11
5.0
 21
14.29191740082388
 31
0.0
  0
LINE
  5
696
  8
1
  6
CONTINUOUS
 62
     7
 10
45.0
 20
11.29191740082388
 30
0.0
 11
44.5
 21
11.29191740082388
 31
0.0
  0
LINE
  5
697
  8
1
  6
CONTINUOUS
 62
     7
 10
45.0
 20
14.29191740082388
 30
0.0
 11
45.0
 21
11.29191740082388
 31
0.0
  0
LINE
  5
698
  8
1
  6
CONTINUOUS
 62
     7
 10
35.00000000000728
 20
28.29191740082388
 30
0.0
 11
45.0
 21
14.29191740082388
 31
0.0
  0
LINE
  5
699
  8
1
  6
CONTINUOUS
 62
     7
 10
31.45880422556002
 20
28.29191740082388
 30
0.0
 11
27.97431033555767
 21
28.29191740082388
 31
0.0
  0
LINE
  5
69A
  8
1
  6
CONTINUOUS
 62
     7
 10
31.45880422556002
 20
28.29191740082388
 30
0.0
 11
27.97431033555767
 21
28.29191740082388
 31
0.0
  0
LINE
  5
69B
  8
1
  6
CONTINUOUS
 62
     7
 10
27.97431033555767
 20
28.29191740082388
 30
0.0
 11
25.0
 21
28.29191740082388
 31
0.0
  0
LINE
  5
69C
  8
1
  6
CONTINUOUS
 62
     7
 10
27.97431033555767
 20
28.29191740082388
 30
0.0
 11
15.26669058629705
 21
28.29191740082388
 31
0.0
  0
LINE
  5
69D
  8
1
  6
CONTINUOUS
 62
     7
 10
25.00000000000728
 20
28.29191740082388
 30
0.0
 11
15.73330941371751
 21
28.29191740082388
 31
0.0
  0
LINE
  5
69E
  8
1
  6
CONTINUOUS
 62
     7
 10
35.00000000000728
 20
28.29191740082388
 30
0.0
 11
31.45880422556002
 21
28.29191740082388
 31
0.0
  0
LINE
  5
69F
  8
1
  6
CONTINUOUS
 62
     7
 10
34.00000000000728
 20
28.29191740082388
 30
0.0
 11
31.45880422556002
 21
28.29191740082388
 31
0.0
  0
ARC
  5
6A0
  8
1
  6
CONTINUOUS
 62
     2
 10
21.50000000000728
 20
166.4970386212062
 30
0.0
 40
9.207130402030177
 50
247.6576354034192
 51
292.3423645965808
  0
ARC
  5
6A1
  8
1
  6
CONTINUOUS
 62
     2
 10
16.50000000000728
 20
159.2631319471911
 30
0.0
 40
1.973223728015
 50
270.0
 51
319.4798358560145
  0
ARC
  5
6A2
  8
1
  6
CONTINUOUS
 62
     2
 10
16.50000000000728
 20
159.2631319471911
 30
0.0
 40
1.973223728116593
 50
220.5201641439895
 51
270.0
  0
ARC
  5
6A3
  8
1
  6
CONTINUOUS
 62
     2
 10
28.5
 20
166.4970386212062
 30
0.0
 40
9.207130402030177
 50
247.6576354034192
 51
292.3423645965807
  0
ARC
  5
6A4
  8
1
  6
CONTINUOUS
 62
     2
 10
33.5
 20
159.2631319471911
 30
0.0
 40
1.973223728116593
 50
220.5201641439896
 51
270.0
  0
ARC
  5
6A5
  8
1
  6
CONTINUOUS
 62
     2
 10
33.5
 20
159.2631319471911
 30
0.0
 40
1.973223728015
 50
270.0
 51
319.4798358560145
  0
ARC
  5
6A6
  8
1
  6
CONTINUOUS
 62
     2
 10
21.50000000000728
 20
155.0847869987938
 30
0.0
 40
9.207130402030177
 50
67.6576354034192
 51
112.3423645965808
  0
ARC
  5
6A7
  8
1
  6
CONTINUOUS
 62
     2
 10
16.50000000000728
 20
162.3186936728089
 30
0.0
 40
1.973223728116593
 50
40.52016414399025
 51
90.0
  0
ARC
  5
6A8
  8
1
  6
CONTINUOUS
 62
     2
 10
16.50000000000728
 20
162.3186936728089
 30
0.0
 40
1.973223728015
 50
90.0
 51
139.4798358560139
  0
ARC
  5
6A9
  8
1
  6
CONTINUOUS
 62
     2
 10
28.5
 20
155.0847869987938
 30
0.0
 40
9.207130402030177
 50
67.6576354034192
 51
112.3423645965809
  0
ARC
  5
6AA
  8
1
  6
CONTINUOUS
 62
     2
 10
33.5
 20
162.3186936728089
 30
0.0
 40
1.973223728015
 50
90.0
 51
139.4798358560145
  0
ARC
  5
6AB
  8
1
  6
CONTINUOUS
 62
     2
 10
33.5
 20
162.3186936728089
 30
0.0
 40
1.973223728116593
 50
40.52016414398983
 51
90.0
  0
ARC
  5
6AC
  8
1
  6
CONTINUOUS
 62
     2
 10
21.50000000000728
 20
45.99904780285397
 30
0.0
 40
9.207130402030177
 50
247.6576354034192
 51
292.3423645965808
  0
ARC
  5
6AD
  8
1
  6
CONTINUOUS
 62
     2
 10
16.50000000000728
 20
38.76514112883888
 30
0.0
 40
1.973223728015
 50
270.0
 51
319.4798358560146
  0
ARC
  5
6AE
  8
1
  6
CONTINUOUS
 62
     2
 10
16.50000000000728
 20
38.76514112883888
 30
0.0
 40
1.973223728116593
 50
220.5201641439895
 51
270.0
  0
ARC
  5
6AF
  8
1
  6
CONTINUOUS
 62
     2
 10
28.5
 20
45.99904780285397
 30
0.0
 40
9.207130402030177
 50
247.6576354034192
 51
292.3423645965808
  0
ARC
  5
6B0
  8
1
  6
CONTINUOUS
 62
     2
 10
33.5
 20
38.76514112883888
 30
0.0
 40
1.973223728116593
 50
220.5201641439897
 51
270.0
  0
ARC
  5
6B1
  8
1
  6
CONTINUOUS
 62
     2
 10
33.5
 20
38.76514112883888
 30
0.0
 40
1.973223728015
 50
270.0
 51
319.4798358560146
  0
ARC
  5
6B2
  8
1
  6
CONTINUOUS
 62
     2
 10
21.50000000000728
 20
34.58679618044152
 30
0.0
 40
9.207130402030177
 50
67.65763540341923
 51
112.3423645965808
  0
ARC
  5
6B3
  8
1
  6
CONTINUOUS
 62
     2
 10
16.50000000000728
 20
41.82070285445661
 30
0.0
 40
1.973223728116593
 50
40.52016414398956
 51
90.0
  0
ARC
  5
6B4
  8
1
  6
CONTINUOUS
 62
     2
 10
16.50000000000728
 20
41.82070285445661
 30
0.0
 40
1.973223728015
 50
90.0
 51
139.4798358560146
  0
ARC
  5
6B5
  8
1
  6
CONTINUOUS
 62
     2
 10
28.5
 20
34.58679618044152
 30
0.0
 40
9.207130402030177
 50
67.6576354034192
 51
112.3423645965808
  0
ARC
  5
6B6
  8
1
  6
CONTINUOUS
 62
     2
 10
33.5
 20
41.82070285445661
 30
0.0
 40
1.973223728015
 50
90.0
 51
139.4798358560146
  0
ARC
  5
6B7
  8
1
  6
CONTINUOUS
 62
     2
 10
33.5
 20
41.82070285445661
 30
0.0
 40
1.973223728116593
 50
40.52016414398959
 51
90.0
  0
ARC
  5
6B8
  8
1
  6
CONTINUOUS
 62
     2
 10
21.50000000000728
 20
38.99703862120623
 30
0.0
 40
9.207130402030177
 50
247.6576354034191
 51
292.3423645965808
  0
ARC
  5
6B9
  8
1
  6
CONTINUOUS
 62
     2
 10
16.50000000000728
 20
31.76313194719114
 30
0.0
 40
1.973223728015
 50
270.0
 51
319.4798358560145
  0
ARC
  5
6BA
  8
1
  6
CONTINUOUS
 62
     2
 10
16.50000000000728
 20
31.76313194719114
 30
0.0
 40
1.973223728116593
 50
220.5201641439894
 51
270.0
  0
ARC
  5
6BB
  8
1
  6
CONTINUOUS
 62
     2
 10
28.5
 20
38.99703862120623
 30
0.0
 40
9.207130402030177
 50
247.6576354034191
 51
292.3423645965808
  0
ARC
  5
6BC
  8
1
  6
CONTINUOUS
 62
     2
 10
33.5
 20
31.76313194719114
 30
0.0
 40
1.973223728116593
 50
220.5201641439895
 51
270.0
  0
ARC
  5
6BD
  8
1
  6
CONTINUOUS
 62
     2
 10
33.5
 20
31.76313194719114
 30
0.0
 40
1.973223728015
 50
270.0
 51
319.4798358560145
  0
ARC
  5
6BE
  8
1
  6
CONTINUOUS
 62
     2
 10
21.50000000000728
 20
27.58478699879379
 30
0.0
 40
9.207130402030177
 50
67.65763540341926
 51
112.3423645965808
  0
ARC
  5
6BF
  8
1
  6
CONTINUOUS
 62
     2
 10
16.50000000000728
 20
34.81869367280888
 30
0.0
 40
1.973223728116593
 50
40.52016414398956
 51
90.0
  0
ARC
  5
6C0
  8
1
  6
CONTINUOUS
 62
     2
 10
16.50000000000728
 20
34.81869367280888
 30
0.0
 40
1.973223728015
 50
90.0
 51
139.4798358560146
  0
ARC
  5
6C1
  8
1
  6
CONTINUOUS
 62
     2
 10
28.5
 20
27.58478699879379
 30
0.0
 40
9.207130402030177
 50
67.65763540341926
 51
112.3423645965809
  0
ARC
  5
6C2
  8
1
  6
CONTINUOUS
 62
     2
 10
33.5
 20
34.81869367280888
 30
0.0
 40
1.973223728015
 50
90.0
 51
139.4798358560146
  0
ARC
  5
6C3
  8
1
  6
CONTINUOUS
 62
     2
 10
33.5
 20
34.81869367280888
 30
0.0
 40
1.973223728116593
 50
40.52016414398956
 51
90.0
  0
ARC
  5
6C4
  8
1
  6
CONTINUOUS
 62
     7
 10
19.99593150715009
 20
29.66441291056617
 30
0.0
 40
1.999999994060315
 50
176.3447865411296
 51
223.3338153368463
  0
ARC
  5
6C5
  8
1
  6
CONTINUOUS
 62
     7
 10
30.0040684928681
 20
29.66441291056617
 30
0.0
 40
1.999999994058361
 50
316.6661846631943
 51
3.65521345887905
  0
ENDBLK
  5
6C7
  8
0
  0
BLOCK
  8
0
  2
_2__29
 70
     0
 10
0.0
 20
0.0
 30
0.0
  3
_2__29
  1

  0
LINE
  5
6CA
  8
1
  6
CONTINUOUS
 62
     7
 10
34.00000000000728
 20
28.29191740082388
 30
0.0
 11
31.45880422556002
 21
28.29191740082388
 31
0.0
  0
LINE
  5
6CB
  8
1
  6
CONTINUOUS
 62
     7
 10
35.00000000000728
 20
28.29191740082388
 30
0.0
 11
31.45880422556002
 21
28.29191740082388
 31
0.0
  0
LINE
  5
6CC
  8
1
  6
CONTINUOUS
 62
     7
 10
25.00000000000728
 20
28.29191740082388
 30
0.0
 11
15.73330941371751
 21
28.29191740082388
 31
0.0
  0
LINE
  5
6CD
  8
1
  6
CONTINUOUS
 62
     7
 10
27.97431033555767
 20
28.29191740082388
 30
0.0
 11
15.26669058629705
 21
28.29191740082388
 31
0.0
  0
LINE
  5
6CE
  8
1
  6
CONTINUOUS
 62
     7
 10
27.97431033555767
 20
28.29191740082388
 30
0.0
 11
25.0
 21
28.29191740082388
 31
0.0
  0
LINE
  5
6CF
  8
1
  6
CONTINUOUS
 62
     7
 10
31.45880422556002
 20
28.29191740082388
 30
0.0
 11
27.97431033555767
 21
28.29191740082388
 31
0.0
  0
LINE
  5
6D0
  8
1
  6
CONTINUOUS
 62
     7
 10
31.45880422556002
 20
28.29191740082388
 30
0.0
 11
27.97431033555767
 21
28.29191740082388
 31
0.0
  0
LINE
  5
6D1
  8
1
  6
CONTINUOUS
 62
     7
 10
35.00000000000728
 20
28.29191740082388
 30
0.0
 11
45.0
 21
14.29191740082388
 31
0.0
  0
LINE
  5
6D2
  8
1
  6
CONTINUOUS
 62
     7
 10
45.0
 20
14.29191740082388
 30
0.0
 11
45.0
 21
11.29191740082388
 31
0.0
  0
LINE
  5
6D3
  8
1
  6
CONTINUOUS
 62
     7
 10
45.0
 20
11.29191740082388
 30
0.0
 11
44.5
 21
11.29191740082388
 31
0.0
  0
LINE
  5
6D4
  8
1
  6
CONTINUOUS
 62
     7
 10
5.0
 20
11.29191740082388
 30
0.0
 11
5.0
 21
14.29191740082388
 31
0.0
  0
LINE
  5
6D5
  8
1
  6
CONTINUOUS
 62
     7
 10
5.0
 20
14.29191740082388
 30
0.0
 11
15.26669058629705
 21
28.29191740082388
 31
0.0
  0
LINE
  5
6D6
  8
1
  6
CONTINUOUS
 62
     2
 10
45.0
 20
14.29191740082388
 30
0.0
 11
5.0
 21
14.29191740082388
 31
0.0
  0
LINE
  5
6D7
  8
1
  6
CONTINUOUS
 62
     7
 10
44.5
 20
11.29191740082388
 30
0.0
 11
44.5
 21
8.291917400823877
 31
0.0
  0
LINE
  5
6D8
  8
1
  6
CONTINUOUS
 62
     7
 10
44.5
 20
11.29191740082388
 30
0.0
 11
5.0
 21
11.29191740082388
 31
0.0
  0
LINE
  5
6D9
  8
1
  6
CONTINUOUS
 62
     7
 10
5.5
 20
8.291917400823877
 30
0.0
 11
5.5
 21
11.29191740082388
 31
0.0
  0
LINE
  5
6DA
  8
1
  6
CONTINUOUS
 62
     7
 10
5.5
 20
8.291917400823877
 30
0.0
 11
44.5
 21
8.291917400823877
 31
0.0
  0
LINE
  5
6DB
  8
1
  6
CONTINUOUS
 62
     2
 10
25.0
 20
36.79191740082388
 30
0.0
 11
31.0
 21
36.79191740082388
 31
0.0
  0
LINE
  5
6DC
  8
1
  6
CONTINUOUS
 62
     2
 10
25.00000000000728
 20
34.79191740082388
 30
0.0
 11
25.0
 21
36.10072794739062
 31
0.0
  0
LINE
  5
6DD
  8
1
  6
CONTINUOUS
 62
     2
 10
31.00000000000728
 20
36.79191740082388
 30
0.0
 11
31.0
 21
36.79191740082388
 31
0.0
  0
LINE
  5
6DE
  8
1
  6
CONTINUOUS
 62
     2
 10
25.0
 20
36.10072794739062
 30
0.0
 11
25.00000000000728
 21
36.10072794739062
 31
0.0
  0
LINE
  5
6DF
  8
1
  6
CONTINUOUS
 62
     2
 10
18.00000000000728
 20
34.79191740082388
 30
0.0
 11
18.00000000000728
 21
36.10072794739062
 31
0.0
  0
LINE
  5
6E0
  8
1
  6
CONTINUOUS
 62
     2
 10
15.00000000000728
 20
34.79191740082388
 30
0.0
 11
15.00000000000728
 21
36.10072794739062
 31
0.0
  0
LINE
  5
6E1
  8
1
  6
CONTINUOUS
 62
     2
 10
32.00000000000728
 20
36.10072794739062
 30
0.0
 11
32.00000000000728
 21
34.79191740082388
 31
0.0
  0
LINE
  5
6E2
  8
1
  6
CONTINUOUS
 62
     2
 10
35.00000000000728
 20
36.10072794739062
 30
0.0
 11
35.00000000000728
 21
34.79191740082388
 31
0.0
  0
LINE
  5
6E3
  8
1
  6
CONTINUOUS
 62
     2
 10
31.00000000000728
 20
29.78990821917614
 30
0.0
 11
25.0
 21
29.78990821917614
 31
0.0
  0
LINE
  5
6E4
  8
1
  6
CONTINUOUS
 62
     2
 10
25.0
 20
30.48109767260939
 30
0.0
 11
25.00000000000728
 21
34.79191740082388
 31
0.0
  0
LINE
  5
6E5
  8
1
  6
CONTINUOUS
 62
     2
 10
33.5
 20
29.78990821917614
 30
0.0
 11
31.00000000000728
 21
29.78990821917614
 31
0.0
  0
LINE
  5
6E6
  8
1
  6
CONTINUOUS
 62
     2
 10
25.00000000000728
 20
29.78990821917614
 30
0.0
 11
16.50000000000728
 21
29.78990821917614
 31
0.0
  0
LINE
  5
6E7
  8
1
  6
CONTINUOUS
 62
     2
 10
25.00000000000728
 20
30.48109767260939
 30
0.0
 11
25.0
 21
30.48109767260939
 31
0.0
  0
LINE
  5
6E8
  8
1
  6
CONTINUOUS
 62
     2
 10
18.00000000000728
 20
30.48109767260939
 30
0.0
 11
18.00000000000728
 21
34.79191740082206
 31
0.0
  0
LINE
  5
6E9
  8
1
  6
CONTINUOUS
 62
     2
 10
15.00000000000728
 20
30.48109767260939
 30
0.0
 11
15.00000000000728
 21
34.79191740082206
 31
0.0
  0
LINE
  5
6EA
  8
1
  6
CONTINUOUS
 62
     2
 10
32.00000000000728
 20
34.79191740082206
 30
0.0
 11
32.00000000000728
 21
34.79191740082388
 31
0.0
  0
LINE
  5
6EB
  8
1
  6
CONTINUOUS
 62
     2
 10
35.00000000000728
 20
34.79191740082206
 30
0.0
 11
35.00000000000728
 21
34.79191740082388
 31
0.0
  0
LINE
  5
6EC
  8
1
  6
CONTINUOUS
 62
     2
 10
35.00000000000728
 20
34.79191740082388
 30
0.0
 11
35.00000000000728
 21
30.48109767260939
 31
0.0
  0
LINE
  5
6ED
  8
1
  6
CONTINUOUS
 62
     2
 10
32.00000000000728
 20
34.79191740082388
 30
0.0
 11
32.00000000000728
 21
30.48109767260939
 31
0.0
  0
LINE
  5
6EE
  8
1
  6
CONTINUOUS
 62
     2
 10
25.00000000000728
 20
34.79191740082388
 30
0.0
 11
25.00000000000728
 21
34.79191740082206
 31
0.0
  0
LINE
  5
6EF
  8
1
  6
CONTINUOUS
 62
     7
 10
31.0
 20
157.2899082191761
 30
0.0
 11
31.0
 21
132.2909128100018
 31
0.0
  0
LINE
  5
6F0
  8
1
  6
CONTINUOUS
 62
     2
 10
31.0
 20
36.79191740082388
 30
0.0
 11
31.00000000000728
 21
36.79191740082388
 31
0.0
  0
LINE
  5
6F1
  8
1
  6
CONTINUOUS
 62
     2
 10
31.0
 20
36.79191740082388
 30
0.0
 11
33.5
 21
36.79191740082388
 31
0.0
  0
LINE
  5
6F2
  8
1
  6
CONTINUOUS
 62
     7
 10
19.0
 20
157.2899082191761
 30
0.0
 11
19.0
 21
132.2909128100018
 31
0.0
  0
LINE
  5
6F3
  8
1
  6
CONTINUOUS
 62
     2
 10
16.50000000000728
 20
36.79191740082388
 30
0.0
 11
25.00000000000728
 21
36.79191740082388
 31
0.0
  0
LINE
  5
6F4
  8
1
  6
CONTINUOUS
 62
     2
 10
29.5
 20
157.2899082191761
 30
0.0
 11
29.5
 21
132.2909128100018
 31
0.0
  0
LINE
  5
6F5
  8
1
  6
CONTINUOUS
 62
     2
 10
20.5
 20
157.2899082191761
 30
0.0
 11
20.5
 21
132.2909128100018
 31
0.0
  0
LINE
  5
6F6
  8
1
  6
DOT_CENTER
 62
     2
 10
25.0
 20
0.0
 30
0.0
 11
25.0
 21
228.0
 31
0.0
  0
LINE
  5
6F7
  8
1
  6
CONTINUOUS
 62
     2
 10
25.0
 20
43.79392658247161
 30
0.0
 11
31.0
 21
43.79392658247161
 31
0.0
  0
LINE
  5
6F8
  8
1
  6
CONTINUOUS
 62
     2
 10
25.00000000000728
 20
41.79392658247161
 30
0.0
 11
25.0
 21
43.10273712903836
 31
0.0
  0
LINE
  5
6F9
  8
1
  6
CONTINUOUS
 62
     2
 10
31.00000000000728
 20
43.79392658247161
 30
0.0
 11
31.0
 21
43.79392658247161
 31
0.0
  0
LINE
  5
6FA
  8
1
  6
CONTINUOUS
 62
     2
 10
16.50000000000728
 20
43.79392658247161
 30
0.0
 11
19.0
 21
43.79392658247161
 31
0.0
  0
LINE
  5
6FB
  8
1
  6
CONTINUOUS
 62
     2
 10
25.0
 20
43.10273712903836
 30
0.0
 11
25.00000000000728
 21
43.10273712903836
 31
0.0
  0
LINE
  5
6FC
  8
1
  6
CONTINUOUS
 62
     2
 10
18.00000000000728
 20
41.79392658247161
 30
0.0
 11
18.00000000000728
 21
43.10273712903836
 31
0.0
  0
LINE
  5
6FD
  8
1
  6
CONTINUOUS
 62
     2
 10
15.00000000000728
 20
41.79392658247161
 30
0.0
 11
15.00000000000728
 21
43.10273712903836
 31
0.0
  0
LINE
  5
6FE
  8
1
  6
CONTINUOUS
 62
     2
 10
32.00000000000728
 20
43.10273712903836
 30
0.0
 11
32.00000000000728
 21
41.79392658247161
 31
0.0
  0
LINE
  5
6FF
  8
1
  6
CONTINUOUS
 62
     2
 10
35.00000000000728
 20
43.10273712903836
 30
0.0
 11
35.00000000000728
 21
41.79392658247161
 31
0.0
  0
LINE
  5
700
  8
1
  6
CONTINUOUS
 62
     2
 10
31.00000000000728
 20
36.79191740082388
 30
0.0
 11
25.0
 21
36.79191740082388
 31
0.0
  0
LINE
  5
701
  8
1
  6
CONTINUOUS
 62
     2
 10
25.0
 20
37.48310685425713
 30
0.0
 11
25.00000000000728
 21
41.79392658247161
 31
0.0
  0
LINE
  5
702
  8
1
  6
CONTINUOUS
 62
     2
 10
33.5
 20
36.79191740082388
 30
0.0
 11
31.00000000000728
 21
36.79191740082388
 31
0.0
  0
LINE
  5
703
  8
1
  6
CONTINUOUS
 62
     2
 10
25.00000000000728
 20
36.79191740082388
 30
0.0
 11
16.50000000000728
 21
36.79191740082388
 31
0.0
  0
LINE
  5
704
  8
1
  6
CONTINUOUS
 62
     2
 10
25.00000000000728
 20
37.48310685425713
 30
0.0
 11
25.0
 21
37.48310685425713
 31
0.0
  0
LINE
  5
705
  8
1
  6
CONTINUOUS
 62
     2
 10
18.00000000000728
 20
37.48310685425713
 30
0.0
 11
18.00000000000728
 21
41.79392658246979
 31
0.0
  0
LINE
  5
706
  8
1
  6
CONTINUOUS
 62
     2
 10
15.00000000000728
 20
37.48310685425713
 30
0.0
 11
15.00000000000728
 21
41.79392658246979
 31
0.0
  0
LINE
  5
707
  8
1
  6
CONTINUOUS
 62
     2
 10
32.00000000000728
 20
41.79392658246979
 30
0.0
 11
32.00000000000728
 21
41.79392658247161
 31
0.0
  0
LINE
  5
708
  8
1
  6
CONTINUOUS
 62
     2
 10
35.00000000000728
 20
41.79392658246979
 30
0.0
 11
35.00000000000728
 21
41.79392658247161
 31
0.0
  0
LINE
  5
709
  8
1
  6
CONTINUOUS
 62
     2
 10
35.00000000000728
 20
41.79392658247161
 30
0.0
 11
35.00000000000728
 21
37.48310685425713
 31
0.0
  0
LINE
  5
70A
  8
1
  6
CONTINUOUS
 62
     2
 10
32.00000000000728
 20
41.79392658247161
 30
0.0
 11
32.00000000000728
 21
37.48310685425713
 31
0.0
  0
LINE
  5
70B
  8
1
  6
CONTINUOUS
 62
     2
 10
25.00000000000728
 20
41.79392658247161
 30
0.0
 11
25.00000000000728
 21
41.79392658246979
 31
0.0
  0
LINE
  5
70C
  8
1
  6
CONTINUOUS
 62
     2
 10
31.0
 20
43.79392658247161
 30
0.0
 11
31.00000000000728
 21
43.79392658247161
 31
0.0
  0
LINE
  5
70D
  8
1
  6
CONTINUOUS
 62
     2
 10
31.0
 20
43.79392658247161
 30
0.0
 11
33.5
 21
43.79392658247161
 31
0.0
  0
LINE
  5
70E
  8
1
  6
CONTINUOUS
 62
     2
 10
19.0
 20
43.79392658247161
 30
0.0
 11
25.00000000000728
 21
43.79392658247161
 31
0.0
  0
LINE
  5
70F
  8
1
  6
CONTINUOUS
 62
     2
 10
25.0
 20
157.2899082191761
 30
0.0
 11
31.0
 21
157.2899082191761
 31
0.0
  0
LINE
  5
710
  8
1
  6
CONTINUOUS
 62
     2
 10
31.00000000000728
 20
157.2899082191761
 30
0.0
 11
31.0
 21
157.2899082191761
 31
0.0
  0
LINE
  5
711
  8
1
  6
CONTINUOUS
 62
     2
 10
25.0
 20
156.5987187657429
 30
0.0
 11
25.00000000000728
 21
156.5987187657429
 31
0.0
  0
LINE
  5
712
  8
1
  6
CONTINUOUS
 62
     2
 10
31.0
 20
157.2899082191761
 30
0.0
 11
31.00000000000728
 21
157.2899082191761
 31
0.0
  0
LINE
  5
713
  8
1
  6
CONTINUOUS
 62
     2
 10
31.0
 20
157.2899082191761
 30
0.0
 11
33.5
 21
157.2899082191761
 31
0.0
  0
LINE
  5
714
  8
1
  6
CONTINUOUS
 62
     2
 10
16.50000000000728
 20
157.2899082191761
 30
0.0
 11
25.00000000000728
 21
157.2899082191761
 31
0.0
  0
LINE
  5
715
  8
1
  6
CONTINUOUS
 62
     2
 10
25.0
 20
164.2919174008239
 30
0.0
 11
31.0
 21
164.2919174008239
 31
0.0
  0
LINE
  5
716
  8
1
  6
CONTINUOUS
 62
     2
 10
25.00000000000728
 20
162.2919174008239
 30
0.0
 11
25.0
 21
163.6007279473906
 31
0.0
  0
LINE
  5
717
  8
1
  6
CONTINUOUS
 62
     2
 10
31.00000000000728
 20
164.2919174008239
 30
0.0
 11
31.0
 21
164.2919174008239
 31
0.0
  0
LINE
  5
718
  8
1
  6
CONTINUOUS
 62
     2
 10
16.50000000000728
 20
164.2919174008239
 30
0.0
 11
19.0
 21
164.2919174008239
 31
0.0
  0
LINE
  5
719
  8
1
  6
CONTINUOUS
 62
     2
 10
25.0
 20
163.6007279473906
 30
0.0
 11
25.00000000000728
 21
163.6007279473906
 31
0.0
  0
LINE
  5
71A
  8
1
  6
CONTINUOUS
 62
     2
 10
18.00000000000728
 20
162.2919174008239
 30
0.0
 11
18.00000000000728
 21
163.6007279473906
 31
0.0
  0
LINE
  5
71B
  8
1
  6
CONTINUOUS
 62
     2
 10
15.00000000000728
 20
162.2919174008239
 30
0.0
 11
15.00000000000728
 21
163.6007279473906
 31
0.0
  0
LINE
  5
71C
  8
1
  6
CONTINUOUS
 62
     2
 10
32.00000000000728
 20
163.6007279473906
 30
0.0
 11
32.00000000000728
 21
162.2919174008239
 31
0.0
  0
LINE
  5
71D
  8
1
  6
CONTINUOUS
 62
     2
 10
35.00000000000728
 20
163.6007279473906
 30
0.0
 11
35.00000000000728
 21
162.2919174008239
 31
0.0
  0
LINE
  5
71E
  8
1
  6
CONTINUOUS
 62
     2
 10
31.00000000000728
 20
157.2899082191761
 30
0.0
 11
25.0
 21
157.2899082191761
 31
0.0
  0
LINE
  5
71F
  8
1
  6
CONTINUOUS
 62
     2
 10
25.0
 20
157.9810976726094
 30
0.0
 11
25.00000000000728
 21
162.2919174008239
 31
0.0
  0
LINE
  5
720
  8
1
  6
CONTINUOUS
 62
     2
 10
33.5
 20
157.2899082191761
 30
0.0
 11
31.00000000000728
 21
157.2899082191761
 31
0.0
  0
LINE
  5
721
  8
1
  6
CONTINUOUS
 62
     2
 10
25.00000000000728
 20
157.2899082191761
 30
0.0
 11
16.50000000000728
 21
157.2899082191761
 31
0.0
  0
LINE
  5
722
  8
1
  6
CONTINUOUS
 62
     2
 10
25.00000000000728
 20
157.9810976726094
 30
0.0
 11
25.0
 21
157.9810976726094
 31
0.0
  0
LINE
  5
723
  8
1
  6
CONTINUOUS
 62
     2
 10
18.00000000000728
 20
157.9810976726094
 30
0.0
 11
18.00000000000728
 21
162.2919174008221
 31
0.0
  0
LINE
  5
724
  8
1
  6
CONTINUOUS
 62
     2
 10
15.00000000000728
 20
157.9810976726094
 30
0.0
 11
15.00000000000728
 21
162.2919174008221
 31
0.0
  0
LINE
  5
725
  8
1
  6
CONTINUOUS
 62
     2
 10
32.00000000000728
 20
162.2919174008221
 30
0.0
 11
32.00000000000728
 21
162.2919174008239
 31
0.0
  0
LINE
  5
726
  8
1
  6
CONTINUOUS
 62
     2
 10
35.00000000000728
 20
162.2919174008221
 30
0.0
 11
35.00000000000728
 21
162.2919174008239
 31
0.0
  0
LINE
  5
727
  8
1
  6
CONTINUOUS
 62
     2
 10
35.00000000000728
 20
162.2919174008239
 30
0.0
 11
35.00000000000728
 21
157.9810976726094
 31
0.0
  0
LINE
  5
728
  8
1
  6
CONTINUOUS
 62
     2
 10
32.00000000000728
 20
162.2919174008239
 30
0.0
 11
32.00000000000728
 21
157.9810976726094
 31
0.0
  0
LINE
  5
729
  8
1
  6
CONTINUOUS
 62
     2
 10
25.00000000000728
 20
162.2919174008239
 30
0.0
 11
25.00000000000728
 21
162.2919174008221
 31
0.0
  0
LINE
  5
72A
  8
1
  6
CONTINUOUS
 62
     2
 10
31.0
 20
164.2919174008239
 30
0.0
 11
31.00000000000728
 21
164.2919174008239
 31
0.0
  0
LINE
  5
72B
  8
1
  6
CONTINUOUS
 62
     2
 10
31.0
 20
164.2919174008239
 30
0.0
 11
33.5
 21
164.2919174008239
 31
0.0
  0
LINE
  5
72C
  8
1
  6
CONTINUOUS
 62
     2
 10
19.0
 20
164.2919174008239
 30
0.0
 11
25.00000000000728
 21
164.2919174008239
 31
0.0
  0
LINE
  5
72D
  8
1
  6
CONTINUOUS
 62
     7
 10
19.0
 20
81.29091281000183
 30
0.0
 11
19.0
 21
43.79392658247161
 31
0.0
  0
LINE
  5
72E
  8
1
  6
CONTINUOUS
 62
     2
 10
20.5
 20
81.29091281000183
 30
0.0
 11
20.5
 21
43.79392658247161
 31
0.0
  0
LINE
  5
72F
  8
1
  6
CONTINUOUS
 62
     2
 10
29.5
 20
81.29091281000183
 30
0.0
 11
29.5
 21
43.73945974030175
 31
0.0
  0
LINE
  5
730
  8
1
  6
CONTINUOUS
 62
     7
 10
31.00000000000728
 20
81.29091281000183
 30
0.0
 11
31.00000000000728
 21
43.79392658247161
 31
0.0
  0
ARC
  5
731
  8
1
  6
CONTINUOUS
 62
     7
 10
30.0040684928681
 20
29.66441291056617
 30
0.0
 40
1.999999994058361
 50
316.6661846631943
 51
3.65521345887905
  0
ARC
  5
732
  8
1
  6
CONTINUOUS
 62
     7
 10
19.99593150715009
 20
29.66441291056617
 30
0.0
 40
1.999999994060315
 50
176.3447865411296
 51
223.3338153368463
  0
ARC
  5
733
  8
1
  6
CONTINUOUS
 62
     2
 10
33.5
 20
34.81869367280888
 30
0.0
 40
1.973223728116593
 50
40.52016414398956
 51
90.0
  0
ARC
  5
734
  8
1
  6
CONTINUOUS
 62
     2
 10
33.5
 20
34.81869367280888
 30
0.0
 40
1.973223728015
 50
90.0
 51
139.4798358560146
  0
ARC
  5
735
  8
1
  6
CONTINUOUS
 62
     2
 10
28.5
 20
27.58478699879379
 30
0.0
 40
9.207130402030177
 50
67.65763540341926
 51
112.3423645965809
  0
ARC
  5
736
  8
1
  6
CONTINUOUS
 62
     2
 10
16.50000000000728
 20
34.81869367280888
 30
0.0
 40
1.973223728015
 50
90.0
 51
139.4798358560146
  0
ARC
  5
737
  8
1
  6
CONTINUOUS
 62
     2
 10
16.50000000000728
 20
34.81869367280888
 30
0.0
 40
1.973223728116593
 50
40.52016414398956
 51
90.0
  0
ARC
  5
738
  8
1
  6
CONTINUOUS
 62
     2
 10
21.50000000000728
 20
27.58478699879379
 30
0.0
 40
9.207130402030177
 50
67.65763540341926
 51
112.3423645965808
  0
ARC
  5
739
  8
1
  6
CONTINUOUS
 62
     2
 10
33.5
 20
31.76313194719114
 30
0.0
 40
1.973223728015
 50
270.0
 51
319.4798358560145
  0
ARC
  5
73A
  8
1
  6
CONTINUOUS
 62
     2
 10
33.5
 20
31.76313194719114
 30
0.0
 40
1.973223728116593
 50
220.5201641439895
 51
270.0
  0
ARC
  5
73B
  8
1
  6
CONTINUOUS
 62
     2
 10
28.5
 20
38.99703862120623
 30
0.0
 40
9.207130402030177
 50
247.6576354034191
 51
292.3423645965808
  0
ARC
  5
73C
  8
1
  6
CONTINUOUS
 62
     2
 10
16.50000000000728
 20
31.76313194719114
 30
0.0
 40
1.973223728116593
 50
220.5201641439894
 51
270.0
  0
ARC
  5
73D
  8
1
  6
CONTINUOUS
 62
     2
 10
16.50000000000728
 20
31.76313194719114
 30
0.0
 40
1.973223728015
 50
270.0
 51
319.4798358560145
  0
ARC
  5
73E
  8
1
  6
CONTINUOUS
 62
     2
 10
21.50000000000728
 20
38.99703862120623
 30
0.0
 40
9.207130402030177
 50
247.6576354034191
 51
292.3423645965808
  0
ARC
  5
73F
  8
1
  6
CONTINUOUS
 62
     2
 10
33.5
 20
41.82070285445661
 30
0.0
 40
1.973223728116593
 50
40.52016414398959
 51
90.0
  0
ARC
  5
740
  8
1
  6
CONTINUOUS
 62
     2
 10
33.5
 20
41.82070285445661
 30
0.0
 40
1.973223728015
 50
90.0
 51
139.4798358560146
  0
ARC
  5
741
  8
1
  6
CONTINUOUS
 62
     2
 10
28.5
 20
34.58679618044152
 30
0.0
 40
9.207130402030177
 50
67.6576354034192
 51
112.3423645965808
  0
ARC
  5
742
  8
1
  6
CONTINUOUS
 62
     2
 10
16.50000000000728
 20
41.82070285445661
 30
0.0
 40
1.973223728015
 50
90.0
 51
139.4798358560146
  0
ARC
  5
743
  8
1
  6
CONTINUOUS
 62
     2
 10
16.50000000000728
 20
41.82070285445661
 30
0.0
 40
1.973223728116593
 50
40.52016414398956
 51
90.0
  0
ARC
  5
744
  8
1
  6
CONTINUOUS
 62
     2
 10
21.50000000000728
 20
34.58679618044152
 30
0.0
 40
9.207130402030177
 50
67.65763540341923
 51
112.3423645965808
  0
ARC
  5
745
  8
1
  6
CONTINUOUS
 62
     2
 10
33.5
 20
38.76514112883888
 30
0.0
 40
1.973223728015
 50
270.0
 51
319.4798358560146
  0
ARC
  5
746
  8
1
  6
CONTINUOUS
 62
     2
 10
33.5
 20
38.76514112883888
 30
0.0
 40
1.973223728116593
 50
220.5201641439897
 51
270.0
  0
ARC
  5
747
  8
1
  6
CONTINUOUS
 62
     2
 10
28.5
 20
45.99904780285397
 30
0.0
 40
9.207130402030177
 50
247.6576354034192
 51
292.3423645965808
  0
ARC
  5
748
  8
1
  6
CONTINUOUS
 62
     2
 10
16.50000000000728
 20
38.76514112883888
 30
0.0
 40
1.973223728116593
 50
220.5201641439895
 51
270.0
  0
ARC
  5
749
  8
1
  6
CONTINUOUS
 62
     2
 10
16.50000000000728
 20
38.76514112883888
 30
0.0
 40
1.973223728015
 50
270.0
 51
319.4798358560146
  0
ARC
  5
74A
  8
1
  6
CONTINUOUS
 62
     2
 10
21.50000000000728
 20
45.99904780285397
 30
0.0
 40
9.207130402030177
 50
247.6576354034192
 51
292.3423645965808
  0
ARC
  5
74B
  8
1
  6
CONTINUOUS
 62
     2
 10
33.5
 20
162.3186936728089
 30
0.0
 40
1.973223728116593
 50
40.52016414398983
 51
90.0
  0
ARC
  5
74C
  8
1
  6
CONTINUOUS
 62
     2
 10
33.5
 20
162.3186936728089
 30
0.0
 40
1.973223728015
 50
90.0
 51
139.4798358560145
  0
ARC
  5
74D
  8
1
  6
CONTINUOUS
 62
     2
 10
28.5
 20
155.0847869987938
 30
0.0
 40
9.207130402030177
 50
67.6576354034192
 51
112.3423645965809
  0
ARC
  5
74E
  8
1
  6
CONTINUOUS
 62
     2
 10
16.50000000000728
 20
162.3186936728089
 30
0.0
 40
1.973223728015
 50
90.0
 51
139.4798358560139
  0
ARC
  5
74F
  8
1
  6
CONTINUOUS
 62
     2
 10
16.50000000000728
 20
162.3186936728089
 30
0.0
 40
1.973223728116593
 50
40.52016414399025
 51
90.0
  0
ARC
  5
750
  8
1
  6
CONTINUOUS
 62
     2
 10
21.50000000000728
 20
155.0847869987938
 30
0.0
 40
9.207130402030177
 50
67.6576354034192
 51
112.3423645965808
  0
ARC
  5
751
  8
1
  6
CONTINUOUS
 62
     2
 10
33.5
 20
159.2631319471911
 30
0.0
 40
1.973223728015
 50
270.0
 51
319.4798358560145
  0
ARC
  5
752
  8
1
  6
CONTINUOUS
 62
     2
 10
33.5
 20
159.2631319471911
 30
0.0
 40
1.973223728116593
 50
220.5201641439896
 51
270.0
  0
ARC
  5
753
  8
1
  6
CONTINUOUS
 62
     2
 10
28.5
 20
166.4970386212062
 30
0.0
 40
9.207130402030177
 50
247.6576354034192
 51
292.3423645965807
  0
ARC
  5
754
  8
1
  6
CONTINUOUS
 62
     2
 10
16.50000000000728
 20
159.2631319471911
 30
0.0
 40
1.973223728116593
 50
220.5201641439895
 51
270.0
  0
ARC
  5
755
  8
1
  6
CONTINUOUS
 62
     2
 10
16.50000000000728
 20
159.2631319471911
 30
0.0
 40
1.973223728015
 50
270.0
 51
319.4798358560145
  0
ARC
  5
756
  8
1
  6
CONTINUOUS
 62
     2
 10
21.50000000000728
 20
166.4970386212062
 30
0.0
 40
9.207130402030177
 50
247.6576354034192
 51
292.3423645965808
  0
ENDBLK
  5
758
  8
0
  0
BLOCK
  8
0
  2
*U31
 70
     1
 10
0.0
 20
0.0
 30
0.0
  3
*U31
  1

  0
SOLID
  5
A72
  8
0
 62
     0
 10
-1.0
 20
-0.125
 30
0.0
 11
-1.0
 21
0.125
 31
0.0
 12
0.0
 22
0.0
 32
0.0
 13
0.0
 23
0.0
 33
0.0
  0
ENDBLK
  5
A74
  8
0
  0
ENDSEC
  0
SECTION
  2
ENTITIES
  0
INSERT
  5
10F
  8
1
  2
_11__1
 10
20612.2380223741
 20
-8795.0
 30
0.0
1001
CAXA_DRAFT_BLKHIDE
1070
     0
  0
INSERT
  5
13B
  8
1
  2
_1__2
 10
19810.63900088685
 20
-8689.999999999998
 30
0.0
1001
CAXA_DRAFT_BLKHIDE
1070
     0
  0
INSERT
  5
15B
  8
1
  2
_11__3
 10
19899.0399793996
 20
-8795.0
 30
0.0
1001
CAXA_DRAFT_BLKHIDE
1070
     0
  0
INSERT
  5
187
  8
1
  2
_9__4
 10
19822.13900088685
 20
-8656.998995409176
 30
0.0
1001
CAXA_DRAFT_BLKHIDE
1070
     0
  0
INSERT
  5
1A7
  8
1
  2
_1__5
 10
20235.63900088685
 20
-8689.999999999998
 30
0.0
1001
CAXA_DRAFT_BLKHIDE
1070
     0
  0
INSERT
  5
1C7
  8
1
  2
_1__6
 10
20700.63900088685
 20
-8689.999999999998
 30
0.0
1001
CAXA_DRAFT_BLKHIDE
1070
     0
  0
INSERT
  5
1E7
  8
1
  2
_11__7
 10
20199.63900088685
 20
-8795.0
 30
0.0
1001
CAXA_DRAFT_BLKHIDE
1070
     0
  0
INSERT
  5
209
  8
1
  2
_9__8
 10
20689.13900088685
 20
-8638.998995409176
 30
0.0
1001
CAXA_DRAFT_BLKHIDE
1070
     0
  0
INSERT
  5
229
  8
1
  2
_9__9
 10
20224.13900088685
 20
-8656.998995409176
 30
0.0
1001
CAXA_DRAFT_BLKHIDE
1070
     0
  0
INSERT
  5
250
  8
1
  2
_2__10
 10
20695.63900088685
 20
-8803.29091281
 30
0.0
1001
CAXA_DRAFT_BLKHIDE
1070
     0
  0
INSERT
  5
2E1
  8
1
  2
_9__11
 10
20689.13900088685
 20
-8628.998995409176
 30
0.0
1001
CAXA_DRAFT_BLKHIDE
1070
     0
  0
INSERT
  5
2F4
  8
1
  2
_2__12
 10
19815.63900088685
 20
-8803.29091281
 30
0.0
1001
CAXA_DRAFT_BLKHIDE
1070
     0
  0
INSERT
  5
385
  8
1
  2
_2__13
 10
20280.63900088685
 20
-8803.29091281
 30
0.0
1001
CAXA_DRAFT_BLKHIDE
1070
     0
  0
INSERT
  5
416
  8
1
  2
_12__14
 10
20683.4629341051
 20
-7395.830905493378
 30
0.0
1001
CAXA_DRAFT_BLKHIDE
1070
     0
  0
INSERT
  5
42A
  8
1
  2
_12__15
 10
20220.94126829852
 20
-6932.656320614726
 30
0.0
1001
CAXA_DRAFT_BLKHIDE
1070
     0
  0
INSERT
  5
43E
  8
1
  2
_12__16
 10
20220.94126829852
 20
-7862.892744353031
 30
0.0
1001
CAXA_DRAFT_BLKHIDE
1070
     0
  0
INSERT
  5
452
  8
1
  2
_11__17
 10
21510.0399793996
 20
-8795.0
 30
0.0
1001
CAXA_DRAFT_BLKHIDE
1070
     0
  0
INSERT
  5
47E
  8
1
  2
_1__18
 10
22311.63900088685
 20
-8689.999999999998
 30
0.0
1001
CAXA_DRAFT_BLKHIDE
1070
     0
  0
INSERT
  5
49E
  8
1
  2
_11__19
 10
22223.2380223741
 20
-8795.0
 30
0.0
1001
CAXA_DRAFT_BLKHIDE
1070
     0
  0
INSERT
  5
4CA
  8
1
  2
_9__20
 10
22300.13900088685
 20
-8656.998995409176
 30
0.0
1001
CAXA_DRAFT_BLKHIDE
1070
     0
  0
INSERT
  5
4EA
  8
1
  2
_1__21
 10
21886.63900088685
 20
-8689.999999999998
 30
0.0
1001
CAXA_DRAFT_BLKHIDE
1070
     0
  0
INSERT
  5
50A
  8
1
  2
_1__22
 10
21421.63900088685
 20
-8689.999999999998
 30
0.0
1001
CAXA_DRAFT_BLKHIDE
1070
     0
  0
INSERT
  5
52A
  8
1
  2
_11__23
 10
21922.63900088685
 20
-8795.0
 30
0.0
1001
CAXA_DRAFT_BLKHIDE
1070
     0
  0
INSERT
  5
54C
  8
1
  2
_9__24
 10
21433.13900088685
 20
-8638.998995409176
 30
0.0
1001
CAXA_DRAFT_BLKHIDE
1070
     0
  0
INSERT
  5
56C
  8
1
  2
_9__25
 10
21898.13900088685
 20
-8656.998995409176
 30
0.0
1001
CAXA_DRAFT_BLKHIDE
1070
     0
  0
INSERT
  5
593
  8
1
  2
_2__26
 10
21426.63900088685
 20
-8803.29091281
 30
0.0
1001
CAXA_DRAFT_BLKHIDE
1070
     0
  0
INSERT
  5
624
  8
1
  2
_9__27
 10
21433.13900088685
 20
-8628.998995409176
 30
0.0
1001
CAXA_DRAFT_BLKHIDE
1070
     0
  0
INSERT
  5
637
  8
1
  2
_2__28
 10
22306.63900088685
 20
-8803.29091281
 30
0.0
1001
CAXA_DRAFT_BLKHIDE
1070
     0
  0
INSERT
  5
6C8
  8
1
  2
_2__29
 10
21841.63900088685
 20
-8803.29091281
 30
0.0
1001
CAXA_DRAFT_BLKHIDE
1070
     0
  0
LINE
  5
759
  8
1
  6
LONG_DASHED
 62
     2
 10
20165.63900088685
 20
-8777.0
 30
0.0
 11
20165.63900088684
 21
-8777.0
 31
0.0
  0
LINE
  5
75A
  8
1
  6
CONTINUOUS
 62
     7
 10
20155.63900088685
 20
-8777.0
 30
0.0
 11
20165.63900088685
 21
-8777.0
 31
0.0
  0
LINE
  5
75B
  8
1
  6
CONTINUOUS
 62
     7
 10
19800.63900088685
 20
-8691.999999999998
 30
0.0
 11
19780.63900088685
 21
-8691.999999999998
 31
0.0
  0
LINE
  5
75C
  8
1
  6
CONTINUOUS
 62
     7
 10
19803.63900088685
 20
-8691.999999999998
 30
0.0
 11
19800.63900088685
 21
-8691.999999999998
 31
0.0
  0
LINE
  5
75D
  8
1
  6
CONTINUOUS
 62
     7
 10
19780.63900088685
 20
-8689.999999999998
 30
0.0
 11
19780.63900088685
 21
-8691.999999999998
 31
0.0
  0
LINE
  5
75E
  8
1
  6
CONTINUOUS
 62
     7
 10
19780.63900088685
 20
-8691.999999999998
 30
0.0
 11
19800.63900088685
 21
-8691.999999999998
 31
0.0
  0
LINE
  5
75F
  8
1
  6
CONTINUOUS
 62
     7
 10
19800.63900088685
 20
-8691.999999999998
 30
0.0
 11
19800.63900088685
 21
-8689.999999999998
 31
0.0
  0
LINE
  5
760
  8
1
  6
CONTINUOUS
 62
     7
 10
19800.63900088685
 20
-8689.999999999998
 30
0.0
 11
19780.63900088685
 21
-8689.999999999998
 31
0.0
  0
LINE
  5
761
  8
1
  6
CONTINUOUS
 62
     2
 10
19786.13900088685
 20
-8656.998995409176
 30
0.0
 11
19786.13900088685
 21
-8670.999999999998
 31
0.0
  0
LINE
  5
762
  8
1
  6
CONTINUOUS
 62
     7
 10
19784.63900088685
 20
-8656.998995409176
 30
0.0
 11
19784.63900088685
 21
-8670.999999999998
 31
0.0
  0
LINE
  5
763
  8
1
  6
CONTINUOUS
 62
     7
 10
19796.63900088685
 20
-8670.999999999998
 30
0.0
 11
19796.63900088685
 21
-8656.998995409176
 31
0.0
  0
LINE
  5
764
  8
1
  6
CONTINUOUS
 62
     2
 10
19795.13900088685
 20
-8670.999999999998
 30
0.0
 11
19795.13900088685
 21
-8656.998995409176
 31
0.0
  0
LINE
  5
765
  8
1
  6
CONTINUOUS
 62
     2
 10
19805.45834282736
 20
-8694.999999999998
 30
0.0
 11
19777.63900088685
 21
-8694.999999999998
 31
0.0
  0
LINE
  5
766
  8
1
  6
CONTINUOUS
 62
     2
 10
19776.63900088685
 20
-8718.999999999998
 30
0.0
 11
19804.95804514491
 21
-8718.999999999998
 31
0.0
  0
LINE
  5
767
  8
1
  6
CONTINUOUS
 62
     7
 10
19809.63900088685
 20
-8692.0
 30
0.0
 11
19808.6392985693
 21
-8692.0
 31
0.0
  0
LINE
  5
768
  8
1
  6
CONTINUOUS
 62
     7
 10
19808.6392985693
 20
-8692.0
 30
0.0
 11
19803.63900088685
 21
-8692.0
 31
0.0
  0
LINE
  5
769
  8
1
  6
CONTINUOUS
 62
     7
 10
19775.63900088685
 20
-8694.999999999998
 30
0.0
 11
19775.63900088685
 21
-8718.999999999998
 31
0.0
  0
LINE
  5
76A
  8
1
  6
CONTINUOUS
 62
     7
 10
19780.63900088685
 20
-8691.999999999998
 30
0.0
 11
19778.63900088685
 21
-8691.999999999998
 31
0.0
  0
LINE
  5
76B
  8
1
  6
CONTINUOUS
 62
     7
 10
19778.63900088685
 20
-8721.999999999998
 30
0.0
 11
19802.63900088685
 21
-8721.999999999998
 31
0.0
  0
LINE
  5
76C
  8
1
  6
LONG_DASHED
 62
     2
 10
20165.63900088685
 20
-8617.0
 30
0.0
 11
20165.63900088684
 21
-8771.0
 31
0.0
  0
LINE
  5
76D
  8
1
  6
LONG_DASHED
 62
     2
 10
20170.63900088685
 20
-8771.0
 30
0.0
 11
20165.63900088684
 21
-8771.0
 31
0.0
  0
LINE
  5
76E
  8
1
  6
CONTINUOUS
 62
     7
 10
20155.63900088685
 20
-8617.0
 30
0.0
 11
20165.63900088685
 21
-8617.0
 31
0.0
  0
LINE
  5
76F
  8
1
  6
LONG_DASHED
 62
     2
 10
20165.63900088684
 20
-8771.0
 30
0.0
 11
20165.63900088685
 21
-8777.0
 31
0.0
  0
LINE
  5
770
  8
1
  6
CONTINUOUS
 62
     7
 10
19808.63900088685
 20
-8692.0
 30
0.0
 11
19810.63900088685
 21
-8692.0
 31
0.0
  0
LINE
  5
771
  8
1
  6
CONTINUOUS
 62
     7
 10
19820.63900088685
 20
-8682.0
 30
0.0
 11
19820.63900088685
 21
-8680.636964869083
 31
0.0
  0
LINE
  5
772
  8
1
  6
CONTINUOUS
 62
     7
 10
19808.63900088685
 20
-8702.000000000004
 30
0.0
 11
19808.63900088685
 21
-8702.0
 31
0.0
  0
LINE
  5
773
  8
1
  6
CONTINUOUS
 62
     7
 10
20150.63900088685
 20
-8623.153036219815
 30
0.0
 11
20150.63900088685
 21
-8772.0
 31
0.0
  0
LINE
  5
774
  8
1
  6
CONTINUOUS
 62
     7
 10
20141.85801597851
 20
-8633.078458236349
 30
0.0
 11
19829.1840609819
 21
-8670.743373515435
 31
0.0
  0
LINE
  5
775
  8
1
  6
CONTINUOUS
 62
     7
 10
20150.63900088685
 20
-8622.0
 30
0.0
 11
20150.63900088685
 21
-8623.153036219815
 31
0.0
  0
LINE
  5
776
  8
1
  6
CONTINUOUS
 62
     7
 10
19810.63900088685
 20
-8692.0
 30
0.0
 11
20150.63900088685
 21
-8692.0
 31
0.0
  0
LINE
  5
777
  8
1
  6
CONTINUOUS
 62
     7
 10
20125.63900088684
 20
-8777.0
 30
0.0
 11
20155.63900088685
 21
-8777.0
 31
0.0
  0
LINE
  5
778
  8
1
  6
CONTINUOUS
 62
     7
 10
20004.31267476623
 20
-8732.622840498927
 30
0.0
 11
19920.59040017986
 21
-8702.0
 31
0.0
  0
LINE
  5
779
  8
1
  6
CONTINUOUS
 62
     7
 10
20150.63900088685
 20
-8702.0
 30
0.0
 11
19920.59040017986
 21
-8702.0
 31
0.0
  0
LINE
  5
77A
  8
1
  6
CONTINUOUS
 62
     7
 10
20125.63900088684
 20
-8777.0
 30
0.0
 11
20004.31267476623
 21
-8732.622840498927
 31
0.0
  0
LINE
  5
77B
  8
1
  6
CONTINUOUS
 62
     7
 10
19805.63900088685
 20
-8695.0
 30
0.0
 11
19805.63900088685
 21
-8699.000000000004
 31
0.0
  0
LINE
  5
77C
  8
1
  6
CONTINUOUS
 62
     7
 10
19808.63900088685
 20
-8702.000000000004
 30
0.0
 11
19808.63900088685
 21
-8702.0
 31
0.0
  0
LINE
  5
77D
  8
1
  6
CONTINUOUS
 62
     7
 10
19785.03239916905
 20
-8702.000000000004
 30
0.0
 11
19808.63900088685
 21
-8702.000000000004
 31
0.0
  0
LINE
  5
77E
  8
1
  6
CONTINUOUS
 62
     7
 10
19815.63900088685
 20
-8702.000000000004
 30
0.0
 11
19808.63900088685
 21
-8702.000000000004
 31
0.0
  0
LINE
  5
77F
  8
1
  6
CONTINUOUS
 62
     7
 10
19815.63900088685
 20
-8702.000000000004
 30
0.0
 11
19808.63900088685
 21
-8702.000000000004
 31
0.0
  0
LINE
  5
780
  8
1
  6
CONTINUOUS
 62
     7
 10
19805.63900088685
 20
-8718.999999999993
 30
0.0
 11
19805.63900088685
 21
-8712.000000000004
 31
0.0
  0
LINE
  5
781
  8
1
  6
CONTINUOUS
 62
     7
 10
19920.59040017986
 20
-8702.0
 30
0.0
 11
19815.63900088685
 21
-8702.000000000004
 31
0.0
  0
LINE
  5
782
  8
1
  6
CONTINUOUS
 62
     7
 10
19905.63900088685
 20
-8702.0
 30
0.0
 11
19815.63900088685
 21
-8702.000000000004
 31
0.0
  0
LINE
  5
783
  8
1
  6
CONTINUOUS
 62
     2
 10
19781.45511660305
 20
-8707.277802859142
 30
0.0
 11
19802.94117410712
 21
-8711.473216553793
 31
0.0
  0
LINE
  5
784
  8
1
  6
CONTINUOUS
 62
     7
 10
20730.63900088685
 20
-8691.999999999998
 30
0.0
 11
20710.63900088685
 21
-8691.999999999998
 31
0.0
  0
LINE
  5
785
  8
1
  6
CONTINUOUS
 62
     7
 10
20710.63900088685
 20
-8691.999999999998
 30
0.0
 11
20707.63900088685
 21
-8691.999999999998
 31
0.0
  0
LINE
  5
786
  8
1
  6
CONTINUOUS
 62
     7
 10
20730.63900088685
 20
-8691.999999999998
 30
0.0
 11
20730.63900088685
 21
-8689.999999999998
 31
0.0
  0
LINE
  5
787
  8
1
  6
CONTINUOUS
 62
     7
 10
20710.63900088685
 20
-8691.999999999998
 30
0.0
 11
20730.63900088685
 21
-8691.999999999998
 31
0.0
  0
LINE
  5
788
  8
1
  6
CONTINUOUS
 62
     7
 10
20710.63900088685
 20
-8689.999999999998
 30
0.0
 11
20710.63900088685
 21
-8691.999999999998
 31
0.0
  0
LINE
  5
789
  8
1
  6
CONTINUOUS
 62
     7
 10
20730.63900088685
 20
-8689.999999999998
 30
0.0
 11
20710.63900088685
 21
-8689.999999999998
 31
0.0
  0
LINE
  5
78A
  8
1
  6
DOT_CENTER
 62
     2
 10
20730.6387032044
 20
-7360.480253832979
 30
0.0
 11
19781.13222992608
 21
-7360.480253832979
 31
0.0
  0
LINE
  5
78B
  8
1
  6
DOT_CENTER
 62
     2
 10
20726.63900088685
 20
-7360.480253832979
 30
0.0
 11
20725.63900088685
 21
-7360.480253832979
 31
0.0
  0
LINE
  5
78C
  8
1
  6
CONTINUOUS
 62
     2
 10
20241.47474233671
 20
-8694.604607368055
 30
0.0
 11
20269.61283085283
 21
-8694.604607368055
 31
0.0
  0
LINE
  5
78D
  8
1
  6
CONTINUOUS
 62
     7
 10
20269.9694822836
 20
-8777.0
 30
0.0
 11
20355.63900088685
 21
-8777.0
 31
0.0
  0
LINE
  5
78E
  8
1
  6
CONTINUOUS
 62
     7
 10
20243.63900088685
 20
-8722.0
 30
0.0
 11
20267.63900088685
 21
-8722.0
 31
0.0
  0
LINE
  5
78F
  8
1
  6
CONTINUOUS
 62
     2
 10
20260.13900088685
 20
-8670.999999999998
 30
0.0
 11
20260.13900088685
 21
-8661.0
 31
0.0
  0
LINE
  5
790
  8
1
  6
CONTINUOUS
 62
     7
 10
20261.63900088685
 20
-8670.999999999998
 30
0.0
 11
20261.63900088685
 21
-8661.0
 31
0.0
  0
LINE
  5
791
  8
1
  6
DOT_CENTER
 62
     2
 10
20255.63900088685
 20
-8661.0
 30
0.0
 11
20255.63900088685
 21
-8737.42810177375
 31
0.0
  0
LINE
  5
792
  8
1
  6
CONTINUOUS
 62
     7
 10
20249.63900088685
 20
-8661.0
 30
0.0
 11
20249.63900088685
 21
-8670.999999999998
 31
0.0
  0
LINE
  5
793
  8
1
  6
CONTINUOUS
 62
     2
 10
20251.13900088685
 20
-8661.0
 30
0.0
 11
20251.13900088685
 21
-8670.999999999998
 31
0.0
  0
LINE
  5
794
  8
1
  6
CONTINUOUS
 62
     2
 10
20241.31995662879
 20
-8719.0
 30
0.0
 11
20269.63900088685
 21
-8719.0
 31
0.0
  0
LINE
  5
795
  8
1
  6
CONTINUOUS
 62
     7
 10
20240.63900088685
 20
-8694.999999999998
 30
0.0
 11
20240.63900088685
 21
-8702.0
 31
0.0
  0
LINE
  5
796
  8
1
  6
CONTINUOUS
 62
     7
 10
20270.63900088685
 20
-8719.0
 30
0.0
 11
20270.63900088685
 21
-8702.0
 31
0.0
  0
LINE
  5
797
  8
1
  6
DOT_CENTER
 62
     2
 10
20255.63900088685
 20
-8737.42810177375
 30
0.0
 11
20255.63900088685
 21
-8771.0
 31
0.0
  0
LINE
  5
798
  8
1
  6
DOT_CENTER
 62
     2
 10
20720.63900088685
 20
-8646.0
 30
0.0
 11
20720.63900088685
 21
-8737.42810177375
 31
0.0
  0
LINE
  5
799
  8
1
  6
CONTINUOUS
 62
     2
 10
20733.63900088685
 20
-8694.999999999998
 30
0.0
 11
20705.81965894634
 21
-8694.999999999998
 31
0.0
  0
LINE
  5
79A
  8
1
  6
CONTINUOUS
 62
     7
 10
20765.8659000785
 20
-8794.998995409176
 30
0.0
 11
19736.08179815679
 21
-8794.998995409176
 31
0.0
  0
LINE
  5
79B
  8
1
  6
CONTINUOUS
 62
     2
 10
20706.31995662879
 20
-8718.999999999998
 30
0.0
 11
20734.63900088685
 21
-8718.999999999998
 31
0.0
  0
LINE
  5
79C
  8
1
  6
CONTINUOUS
 62
     7
 10
20702.6387032044
 20
-8692.0
 30
0.0
 11
20701.63900088685
 21
-8692.0
 31
0.0
  0
LINE
  5
79D
  8
1
  6
CONTINUOUS
 62
     7
 10
20707.63900088685
 20
-8692.0
 30
0.0
 11
20702.6387032044
 21
-8692.0
 31
0.0
  0
LINE
  5
79E
  8
1
  6
CONTINUOUS
 62
     7
 10
20735.63900088685
 20
-8718.999999999998
 30
0.0
 11
20735.63900088685
 21
-8694.999999999998
 31
0.0
  0
LINE
  5
79F
  8
1
  6
CONTINUOUS
 62
     7
 10
20732.63900088685
 20
-8691.999999999998
 30
0.0
 11
20730.63900088685
 21
-8691.999999999998
 31
0.0
  0
LINE
  5
7A0
  8
1
  6
CONTINUOUS
 62
     7
 10
20708.63900088685
 20
-8721.999999999998
 30
0.0
 11
20732.63900088685
 21
-8721.999999999998
 31
0.0
  0
LINE
  5
7A1
  8
1
  6
CONTINUOUS
 62
     7
 10
20643.4165010548
 20
-7413.92401718453
 30
0.0
 11
20682.77889628135
 21
-7410.480253832979
 31
0.0
  0
LINE
  5
7A2
  8
1
  6
CONTINUOUS
 62
     7
 10
20682.77889628135
 20
-7310.480253832979
 30
0.0
 11
20700.63997825518
 21
-7310.480253832978
 31
0.0
  0
LINE
  5
7A3
  8
1
  6
CONTINUOUS
 62
     7
 10
20682.77889628135
 20
-7310.480253832979
 30
0.0
 11
20643.4165010548
 21
-7307.036490481428
 31
0.0
  0
LINE
  5
7A4
  8
1
  6
DOT_CENTER
 62
     2
 10
20720.63900088685
 20
-7349.70352211669
 30
0.0
 11
20720.63900088685
 21
-7372.70352211669
 31
0.0
  0
LINE
  5
7A5
  8
1
  6
DOT_CENTER
 62
     2
 10
20738.48953091256
 20
-7360.480253832979
 30
0.0
 11
20735.63900088685
 21
-7360.480253832979
 31
0.0
  0
LINE
  5
7A6
  8
1
  6
CONTINUOUS
 62
     7
 10
20643.4165010548
 20
-7307.036490481428
 30
0.0
 11
20506.29167402517
 21
-7295.039622628384
 31
0.0
  0
LINE
  5
7A7
  8
1
  6
CONTINUOUS
 62
     7
 10
20643.4165010548
 20
-7307.036490481428
 30
0.0
 11
20461.36596558265
 21
-7291.109132438793
 31
0.0
  0
LINE
  5
7A8
  8
1
  6
DOT_CENTER
 62
     2
 10
20255.63900088685
 20
-8810.846963780183
 30
0.0
 11
20255.63900088685
 21
-8010.000000000001
 31
0.0
  0
LINE
  5
7A9
  8
1
  6
LONG_DASHED
 62
     2
 10
20170.63900088685
 20
-8771.0
 30
0.0
 11
20170.63900088685
 21
-8105.000000000001
 31
0.0
  0
LINE
  5
7AA
  8
1
  6
LONG_DASHED
 62
     2
 10
20340.63900088685
 20
-8771.0
 30
0.0
 11
20340.63900088685
 21
-8025.000000000001
 31
0.0
  0
LINE
  5
7AB
  8
1
  6
LONG_DASHED
 62
     2
 10
20345.63900088686
 20
-8771.0
 30
0.0
 11
20345.63900088685
 21
-8617.0
 31
0.0
  0
LINE
  5
7AC
  8
1
  6
LONG_DASHED
 62
     2
 10
20345.63900088686
 20
-8771.0
 30
0.0
 11
20340.63900088685
 21
-8771.0
 31
0.0
  0
LINE
  5
7AD
  8
1
  6
CONTINUOUS
 62
     7
 10
20260.63900088685
 20
-7785.480253832978
 30
0.0
 11
20260.63900088685
 21
-7477.056709418489
 31
0.0
  0
LINE
  5
7AE
  8
1
  6
LONG_DASHED
 62
     2
 10
20250.63900088685
 20
-7474.497796342901
 30
0.0
 11
20250.63900088685
 21
-7477.056709418489
 31
0.0
  0
LINE
  5
7AF
  8
1
  6
CONTINUOUS
 62
     7
 10
20179.97857529944
 20
-7458.768096417462
 30
0.0
 11
20176.68996229857
 21
-7462.05670941849
 31
0.0
  0
LINE
  5
7B0
  8
1
  6
CONTINUOUS
 62
     7
 10
20145.73080825048
 20
-7471.802660031732
 30
0.0
 11
20155.47675886372
 21
-7462.05670941849
 31
0.0
  0
LINE
  5
7B1
  8
1
  6
CONTINUOUS
 62
     7
 10
20154.52273117717
 20
-7460.182309980281
 30
0.0
 11
20152.64833173897
 21
-7462.05670941849
 31
0.0
  0
LINE
  5
7B2
  8
1
  6
CONTINUOUS
 62
     7
 10
20345.63900088685
 20
-8617.0
 30
0.0
 11
20345.63900088685
 21
-8549.0
 31
0.0
  0
LINE
  5
7B3
  8
1
  6
CONTINUOUS
 62
     7
 10
20165.63900088685
 20
-8617.0
 30
0.0
 11
20165.63900088685
 21
-8549.0
 31
0.0
  0
LINE
  5
7B4
  8
1
  6
CONTINUOUS
 62
     7
 10
20355.63900088687
 20
-8015.000000000001
 30
0.0
 11
20355.63900088687
 21
-8089.270105665664
 31
0.0
  0
LINE
  5
7B5
  8
1
  6
CONTINUOUS
 62
     7
 10
20155.63900088683
 20
-8089.270105665664
 30
0.0
 11
20155.63900088683
 21
-8095.000000000001
 31
0.0
  0
LINE
  5
7B6
  8
1
  6
CONTINUOUS
 62
     7
 10
20155.63900088683
 20
-8089.270105665664
 30
0.0
 11
20155.63900088683
 21
-8015.000000000001
 31
0.0
  0
LINE
  5
7B7
  8
1
  6
LONG_DASHED
 62
     2
 10
20210.63900088684
 20
-8025.000000000001
 30
0.0
 11
20170.63900088685
 21
-8025.000000000001
 31
0.0
  0
LINE
  5
7B8
  8
1
  6
CONTINUOUS
 62
     7
 10
20210.63900088684
 20
-8005.000000000001
 30
0.0
 11
20255.63900088684
 21
-8005.000000000001
 31
0.0
  0
LINE
  5
7B9
  8
1
  6
LONG_DASHED
 62
     2
 10
20210.63900088684
 20
-8025.000000000001
 30
0.0
 11
20210.63900088684
 21
-8005.000000000001
 31
0.0
  0
LINE
  5
7BA
  8
1
  6
CONTINUOUS
 62
     7
 10
20300.63900088684
 20
-8005.000000000001
 30
0.0
 11
20350.63900088684
 21
-8005.000000000001
 31
0.0
  0
LINE
  5
7BB
  8
1
  6
LONG_DASHED
 62
     2
 10
20300.63900088684
 20
-8022.000000000001
 30
0.0
 11
20300.63900088684
 21
-8005.000000000001
 31
0.0
  0
LINE
  5
7BC
  8
1
  6
LONG_DASHED
 62
     2
 10
20165.63900088683
 20
-8025.000000000001
 30
0.0
 11
20165.63900088683
 21
-8105.000000000001
 31
0.0
  0
LINE
  5
7BD
  8
1
  6
CONTINUOUS
 62
     7
 10
20155.63900088684
 20
-8015.000000000001
 30
0.0
 11
20155.63900088683
 21
-8015.000000000001
 31
0.0
  0
LINE
  5
7BE
  8
1
  6
CONTINUOUS
 62
     7
 10
20355.63900088685
 20
-8095.000000000001
 30
0.0
 11
20355.63900088685
 21
-8089.270105665664
 31
0.0
  0
LINE
  5
7BF
  8
1
  6
CONTINUOUS
 62
     7
 10
20155.63900088683
 20
-8015.000000000001
 30
0.0
 11
20155.63900088683
 21
-8015.000000000001
 31
0.0
  0
LINE
  5
7C0
  8
1
  6
CONTINUOUS
 62
     7
 10
20355.63900088684
 20
-8015.000000000001
 30
0.0
 11
20355.63900088684
 21
-8015.000000000001
 31
0.0
  0
LINE
  5
7C1
  8
1
  6
CONTINUOUS
 62
     7
 10
20355.63900088684
 20
-8015.000000000001
 30
0.0
 11
20355.63900088684
 21
-8010.000000000001
 31
0.0
  0
LINE
  5
7C2
  8
1
  6
CONTINUOUS
 62
     7
 10
20255.63900088684
 20
-8005.000000000001
 30
0.0
 11
20300.63900088684
 21
-8005.000000000001
 31
0.0
  0
LINE
  5
7C3
  8
1
  6
LONG_DASHED
 62
     2
 10
20255.63900088685
 20
-8025.000000000001
 30
0.0
 11
20210.63900088684
 21
-8025.000000000001
 31
0.0
  0
LINE
  5
7C4
  8
1
  6
LONG_DASHED
 62
     2
 10
20303.63900088684
 20
-8025.000000000001
 30
0.0
 11
20255.63900088685
 21
-8025.000000000001
 31
0.0
  0
LINE
  5
7C5
  8
1
  6
CONTINUOUS
 62
     7
 10
20165.63900088683
 20
-8105.000000000001
 30
0.0
 11
20170.63900088685
 21
-8105.000000000001
 31
0.0
  0
LINE
  5
7C6
  8
1
  6
LONG_DASHED
 62
     2
 10
20345.63900088685
 20
-8025.000000000001
 30
0.0
 11
20303.63900088684
 21
-8025.000000000001
 31
0.0
  0
LINE
  5
7C7
  8
1
  6
LONG_DASHED
 62
     2
 10
20170.63900088685
 20
-8105.000000000001
 30
0.0
 11
20170.63900088685
 21
-8025.000000000001
 31
0.0
  0
LINE
  5
7C8
  8
1
  6
LONG_DASHED
 62
     2
 10
20170.63900088685
 20
-8025.000000000001
 30
0.0
 11
20165.63900088683
 21
-8025.000000000001
 31
0.0
  0
LINE
  5
7C9
  8
1
  6
CONTINUOUS
 62
     7
 10
20170.63900088685
 20
-8105.000000000001
 30
0.0
 11
20345.63900088685
 21
-8105.000000000001
 31
0.0
  0
LINE
  5
7CA
  8
1
  6
LONG_DASHED
 62
     2
 10
20345.63900088685
 20
-8105.000000000001
 30
0.0
 11
20345.63900088685
 21
-8025.000000000001
 31
0.0
  0
LINE
  5
7CB
  8
1
  6
CONTINUOUS
 62
     7
 10
20200.51877428319
 20
-8777.0
 30
0.0
 11
20165.63900088685
 21
-8777.0
 31
0.0
  0
LINE
  5
7CC
  8
1
  6
CONTINUOUS
 62
     7
 10
20345.63900088685
 20
-8617.0
 30
0.0
 11
20355.63900088685
 21
-8617.0
 31
0.0
  0
LINE
  5
7CD
  8
1
  6
LONG_DASHED
 62
     2
 10
20345.63900088686
 20
-8777.0
 30
0.0
 11
20345.63900088686
 21
-8771.0
 31
0.0
  0
LINE
  5
7CE
  8
1
  6
CONTINUOUS
 62
     7
 10
20304.63900088685
 20
-8617.0
 30
0.0
 11
20345.63900088685
 21
-8617.0
 31
0.0
  0
LINE
  5
7CF
  8
1
  6
CONTINUOUS
 62
     7
 10
20165.63900088685
 20
-8617.0
 30
0.0
 11
20304.63900088685
 21
-8617.0
 31
0.0
  0
LINE
  5
7D0
  8
1
  6
CONTINUOUS
 62
     7
 10
20700.63900088685
 20
-8692.0
 30
0.0
 11
20702.63900088685
 21
-8692.0
 31
0.0
  0
LINE
  5
7D1
  8
1
  6
CONTINUOUS
 62
     7
 10
20690.63900088685
 20
-8680.636964869083
 30
0.0
 11
20690.63900088685
 21
-8682.0
 31
0.0
  0
LINE
  5
7D2
  8
1
  6
CONTINUOUS
 62
     7
 10
20702.63900088685
 20
-8702.0
 30
0.0
 11
20702.63900088685
 21
-8702.000000000004
 31
0.0
  0
LINE
  5
7D3
  8
1
  6
CONTINUOUS
 62
     7
 10
20360.63900088685
 20
-8772.0
 30
0.0
 11
20360.63900088685
 21
-8623.153036219815
 31
0.0
  0
LINE
  5
7D4
  8
1
  6
CONTINUOUS
 62
     7
 10
20682.0939407918
 20
-8670.743373515435
 30
0.0
 11
20369.41998579519
 21
-8633.078458236349
 31
0.0
  0
LINE
  5
7D5
  8
1
  6
CONTINUOUS
 62
     7
 10
20360.63900088685
 20
-8623.153036219815
 30
0.0
 11
20360.63900088685
 21
-8622.0
 31
0.0
  0
LINE
  5
7D6
  8
1
  6
CONTINUOUS
 62
     7
 10
20360.63900088685
 20
-8692.0
 30
0.0
 11
20700.63900088685
 21
-8692.0
 31
0.0
  0
LINE
  5
7D7
  8
1
  6
CONTINUOUS
 62
     7
 10
20355.63900088685
 20
-8777.0
 30
0.0
 11
20385.63900088686
 21
-8777.0
 31
0.0
  0
LINE
  5
7D8
  8
1
  6
CONTINUOUS
 62
     7
 10
20590.68760159384
 20
-8702.0
 30
0.0
 11
20506.96532700747
 21
-8732.622840498927
 31
0.0
  0
LINE
  5
7D9
  8
1
  6
CONTINUOUS
 62
     7
 10
20590.68760159384
 20
-8702.0
 30
0.0
 11
20360.63900088685
 21
-8702.0
 31
0.0
  0
LINE
  5
7DA
  8
1
  6
CONTINUOUS
 62
     7
 10
20207.63900088685
 20
-8692.0
 30
0.0
 11
20274.50996025989
 21
-8692.0
 31
0.0
  0
LINE
  5
7DB
  8
1
  6
CONTINUOUS
 62
     7
 10
20274.50996025989
 20
-8692.0
 30
0.0
 11
20303.63900088685
 21
-8692.0
 31
0.0
  0
LINE
  5
7DC
  8
1
  6
CONTINUOUS
 62
     7
 10
20306.63900088685
 20
-8695.0
 30
0.0
 11
20306.63900088685
 21
-8699.0
 31
0.0
  0
LINE
  5
7DD
  8
1
  6
CONTINUOUS
 62
     7
 10
20204.63900088685
 20
-8699.0
 30
0.0
 11
20204.63900088685
 21
-8695.0
 31
0.0
  0
LINE
  5
7DE
  8
1
  6
CONTINUOUS
 62
     7
 10
20506.96532700747
 20
-8732.622840498927
 30
0.0
 11
20385.63900088686
 21
-8777.0
 31
0.0
  0
LINE
  5
7DF
  8
1
  6
CONTINUOUS
 62
     7
 10
20705.63900088685
 20
-8699.000000000004
 30
0.0
 11
20705.63900088685
 21
-8695.0
 31
0.0
  0
LINE
  5
7E0
  8
1
  6
DOT_CENTER
 62
     2
 10
20460.63900088685
 20
-8208.770124678758
 30
0.0
 11
20460.63900088685
 21
-8148.935724350735
 31
0.0
  0
LINE
  5
7E1
  8
1
  6
LONG_DASHED
 62
     2
 10
20454.63900088685
 20
-8185.649110640672
 30
0.0
 11
20454.63900088685
 21
-8189.999999999998
 31
0.0
  0
LINE
  5
7E2
  8
1
  6
LONG_DASHED
 62
     2
 10
20466.63900088685
 20
-8190.0
 30
0.0
 11
20466.63900088685
 21
-8185.649110640672
 31
0.0
  0
LINE
  5
7E3
  8
1
  6
LONG_DASHED
 62
     2
 10
20056.63900088685
 20
-8189.999999999998
 30
0.0
 11
20056.63900088685
 21
-8185.649110640672
 31
0.0
  0
LINE
  5
7E4
  8
1
  6
LONG_DASHED
 62
     2
 10
20044.63900088685
 20
-8185.649110640672
 30
0.0
 11
20044.63900088685
 21
-8190.0
 31
0.0
  0
LINE
  5
7E5
  8
1
  6
CONTINUOUS
 62
     7
 10
20397.06035712416
 20
-8201.252741954886
 30
0.0
 11
20428.31309907905
 21
-8170.0
 31
0.0
  0
LINE
  5
7E6
  8
1
  6
CONTINUOUS
 62
     7
 10
20486.80195179075
 20
-8216.162950903901
 30
0.0
 11
20326.27690657192
 21
-8376.687996122731
 31
0.0
  0
LINE
  5
7E7
  8
1
  6
CONTINUOUS
 62
     7
 10
20076.80195179076
 20
-8163.837049096097
 30
0.0
 11
20082.96490269466
 21
-8170.0
 31
0.0
  0
LINE
  5
7E8
  8
1
  6
DOT_CENTER
 62
     2
 10
20263.12208660695
 20
-8279.831385717574
 30
0.0
 11
20260.63900088685
 21
-8279.831385717574
 31
0.0
  0
LINE
  5
7E9
  8
1
  6
DOT_CENTER
 62
     2
 10
20260.63900088685
 20
-8279.831385717574
 30
0.0
 11
20248.12208660695
 21
-8279.831385717574
 31
0.0
  0
LINE
  5
7EA
  8
1
  6
CONTINUOUS
 62
     7
 10
20296.98758469057
 20
-8447.398674241387
 30
0.0
 11
20296.98758469057
 21
-8475.0
 31
0.0
  0
LINE
  5
7EB
  8
1
  6
CONTINUOUS
 62
     7
 10
20224.29041708312
 20
-8485.0
 30
0.0
 11
20286.98758469057
 21
-8485.0
 31
0.0
  0
LINE
  5
7EC
  8
1
  6
CONTINUOUS
 62
     7
 10
20185.00109520178
 20
-8376.687996122728
 30
0.0
 11
20024.47604998295
 21
-8216.162950903901
 31
0.0
  0
LINE
  5
7ED
  8
1
  6
CONTINUOUS
 62
     7
 10
20214.29041708312
 20
-8475.0
 30
0.0
 11
20214.29041708312
 21
-8447.398674241384
 31
0.0
  0
LINE
  5
7EE
  8
1
  6
CONTINUOUS
 62
     7
 10
20155.47675886372
 20
-7462.05670941849
 30
0.0
 11
20169.37197358209
 21
-7448.161494700111
 31
0.0
  0
LINE
  5
7EF
  8
1
  6
CONTINUOUS
 62
     7
 10
20150.98719727124
 20
-7463.717843886212
 30
0.0
 11
20143.91612945938
 21
-7456.646776074351
 31
0.0
  0
LINE
  5
7F0
  8
1
  6
CONTINUOUS
 62
     7
 10
20143.91612945938
 20
-7449.575708262481
 30
0.0
 11
20148.86587692768
 21
-7444.625960794181
 31
0.0
  0
LINE
  5
7F1
  8
1
  6
CONTINUOUS
 62
     2
 10
20154.52273117717
 20
-7460.182309980281
 30
0.0
 11
20145.69109515954
 21
-7451.350673962652
 31
0.0
  0
LINE
  5
7F2
  8
1
  6
LONG_DASHED
 62
     2
 10
20152.64833173897
 20
-7462.05670941849
 30
0.0
 11
20150.98719727124
 21
-7463.717843886212
 31
0.0
  0
LINE
  5
7F3
  8
1
  6
LONG_DASHED
 62
     2
 10
20159.47247864559
 20
-7472.203125260341
 30
0.0
 11
20152.40141083361
 21
-7465.132057448591
 31
0.0
  0
LINE
  5
7F4
  8
1
  6
LONG_DASHED
 62
     2
 10
20164.76858075727
 20
-7470.428159560091
 30
0.0
 11
20155.93694473949
 21
-7461.596523542601
 31
0.0
  0
LINE
  5
7F5
  8
1
  6
CONTINUOUS
 62
     7
 10
20187.74096783161
 20
-7451.005703885132
 30
0.0
 11
20179.97857529944
 21
-7458.768096417462
 31
0.0
  0
LINE
  5
7F6
  8
1
  6
LONG_DASHED
 62
     2
 10
20148.86587692768
 20
-7444.625960794181
 30
0.0
 11
20159.47247864548
 21
-7455.232562511981
 31
0.0
  0
LINE
  5
7F7
  8
1
  6
CONTINUOUS
 62
     7
 10
20148.86587692768
 20
-7444.625960794181
 30
0.0
 11
20157.35115830192
 21
-7436.140679419941
 31
0.0
  0
LINE
  5
7F8
  8
1
  6
LONG_DASHED
 62
     2
 10
20157.35115830192
 20
-7436.140679419941
 30
0.0
 11
20167.95776001972
 21
-7446.747281137741
 31
0.0
  0
LINE
  5
7F9
  8
1
  6
CONTINUOUS
 62
     7
 10
20167.95776001972
 20
-7446.747281137741
 30
0.0
 11
20154.52273117717
 21
-7460.182309980281
 31
0.0
  0
LINE
  5
7FA
  8
1
  6
CONTINUOUS
 62
     7
 10
20157.35115830192
 20
-7436.140679419941
 30
0.0
 11
20165.11355083399
 21
-7428.378286887881
 31
0.0
  0
LINE
  5
7FB
  8
1
  6
LONG_DASHED
 62
     2
 10
20169.37197358209
 20
-7448.161494700111
 30
0.0
 11
20179.97857529944
 21
-7458.768096417462
 31
0.0
  0
LINE
  5
7FC
  8
1
  6
CONTINUOUS
 62
     7
 10
20169.37197358209
 20
-7448.161494700111
 30
0.0
 11
20185.63896517169
 21
-7431.894503110521
 31
0.0
  0
LINE
  5
7FD
  8
1
  6
LONG_DASHED
 62
     2
 10
20176.68996229857
 20
-7462.05670941849
 30
0.0
 11
20174.32419348164
 21
-7464.42247823553
 31
0.0
  0
LINE
  5
7FE
  8
1
  6
LONG_DASHED
 62
     2
 10
20160.88669220785
 20
-7456.646776074351
 30
0.0
 11
20171.03524147755
 21
-7466.795325344041
 31
0.0
  0
LINE
  5
7FF
  8
1
  6
LONG_DASHED
 62
     2
 10
20174.32419348164
 20
-7464.42247823553
 30
0.0
 11
20166.54354645746
 21
-7472.203125260232
 31
0.0
  0
LINE
  5
800
  8
1
  6
CONTINUOUS
 62
     7
 10
20145.69613985816
 20
-7471.837328424052
 30
0.0
 11
20145.73080825048
 21
-7471.802660031732
 31
0.0
  0
LINE
  5
801
  8
1
  6
CONTINUOUS
 62
     7
 10
20150.98719727124
 20
-7463.717843886212
 30
0.0
 11
20144.28192629578
 21
-7470.423114861682
 31
0.0
  0
LINE
  5
802
  8
1
  6
CONTINUOUS
 62
     7
 10
20184.22475160931
 20
-7430.480289548152
 30
0.0
 11
20167.95776001972
 21
-7446.747281137741
 31
0.0
  0
LINE
  5
803
  8
1
  6
CONTINUOUS
 62
     7
 10
20187.74096783161
 20
-7451.005703885132
 30
0.0
 11
20179.97857529944
 21
-7458.768096417462
 31
0.0
  0
LINE
  5
804
  8
1
  6
CONTINUOUS
 62
     7
 10
20141.62145837693
 20
-7355.480253832978
 30
0.0
 11
19830.63900088685
 21
-7355.480253832979
 31
0.0
  0
LINE
  5
805
  8
1
  6
CONTINUOUS
 62
     7
 10
19830.63900088685
 20
-7365.480253832979
 30
0.0
 11
20141.62145837693
 21
-7365.480253832978
 31
0.0
  0
LINE
  5
806
  8
1
  6
CONTINUOUS
 62
     7
 10
20250.63900088685
 20
-6935.480253832979
 30
0.0
 11
20250.63900088685
 21
-7140.355175610047
 31
0.0
  0
LINE
  5
807
  8
1
  6
CONTINUOUS
 62
     7
 10
20260.63900088685
 20
-7246.462711323056
 30
0.0
 11
20260.63900088685
 21
-7140.355175610001
 31
0.0
  0
LINE
  5
808
  8
1
  6
CONTINUOUS
 62
     7
 10
20343.32024175398
 20
-7274.213226528222
 30
0.0
 11
20366.9614070856
 21
-7250.572061196604
 31
0.0
  0
LINE
  5
809
  8
1
  6
CONTINUOUS
 62
     7
 10
20351.80552312822
 20
-7248.757382405507
 30
0.0
 11
20358.87659094008
 21
-7255.828450217372
 31
0.0
  0
LINE
  5
80A
  8
1
  6
CONTINUOUS
 62
     7
 10
20339.78470784805
 20
-7253.707129873812
 30
0.0
 11
20344.73445531635
 21
-7248.757382405507
 31
0.0
  0
LINE
  5
80B
  8
1
  6
CONTINUOUS
 62
     7
 10
20346.50942101652
 20
-7250.532348105667
 30
0.0
 11
20355.34105703415
 21
-7259.363984123304
 31
0.0
  0
LINE
  5
80C
  8
1
  6
CONTINUOUS
 62
     7
 10
20358.87659094008
 20
-7255.828450217372
 30
0.0
 11
20355.34105703415
 21
-7259.363984123304
 31
0.0
  0
LINE
  5
80D
  8
1
  6
CONTINUOUS
 62
     7
 10
20360.29080450246
 20
-7257.242663779744
 30
0.0
 11
20367.36187231421
 21
-7264.313731591723
 31
0.0
  0
LINE
  5
80E
  8
1
  6
CONTINUOUS
 62
     7
 10
20356.75527059647
 20
-7260.778197685619
 30
0.0
 11
20365.58690661396
 21
-7269.6098337034
 31
0.0
  0
LINE
  5
80F
  8
1
  6
CONTINUOUS
 62
     7
 10
20353.92684347133
 20
-7284.81982824557
 30
0.0
 11
20346.164450939
 21
-7292.582220777735
 31
0.0
  0
LINE
  5
810
  8
1
  6
CONTINUOUS
 62
     7
 10
20350.39130956585
 20
-7264.31373159161
 30
0.0
 11
20339.78470784805
 21
-7253.707129873812
 31
0.0
  0
LINE
  5
811
  8
1
  6
CONTINUOUS
 62
     7
 10
20331.29942647381
 20
-7262.19241124805
 30
0.0
 11
20339.78470784805
 21
-7253.707129873812
 31
0.0
  0
LINE
  5
812
  8
1
  6
CONTINUOUS
 62
     7
 10
20341.90602819161
 20
-7272.799012965848
 30
0.0
 11
20331.29942647381
 21
-7262.19241124805
 31
0.0
  0
LINE
  5
813
  8
1
  6
CONTINUOUS
 62
     7
 10
20355.34105703415
 20
-7259.363984123304
 30
0.0
 11
20341.90602819161
 21
-7272.799012965848
 31
0.0
  0
LINE
  5
814
  8
1
  6
CONTINUOUS
 62
     7
 10
20323.53703394175
 20
-7269.954803780114
 30
0.0
 11
20331.29942647381
 21
-7262.19241124805
 31
0.0
  0
LINE
  5
815
  8
1
  6
CONTINUOUS
 62
     7
 10
20353.92684347133
 20
-7284.81982824557
 30
0.0
 11
20343.32024175398
 21
-7274.213226528222
 31
0.0
  0
LINE
  5
816
  8
1
  6
CONTINUOUS
 62
     7
 10
20327.05325016439
 20
-7290.480218117814
 30
0.0
 11
20343.32024175398
 21
-7274.213226528222
 31
0.0
  0
LINE
  5
817
  8
1
  6
CONTINUOUS
 62
     7
 10
20359.5812252894
 20
-7279.165446427773
 30
0.0
 11
20353.92684347133
 21
-7284.81982824557
 31
0.0
  0
LINE
  5
818
  8
1
  6
CONTINUOUS
 62
     7
 10
20361.95407239791
 20
-7275.876494423675
 30
0.0
 11
20351.80552312822
 21
-7265.727945153983
 31
0.0
  0
LINE
  5
819
  8
1
  6
CONTINUOUS
 62
     7
 10
20367.3618723141
 20
-7271.384799403589
 30
0.0
 11
20359.5812252894
 21
-7279.165446427773
 31
0.0
  0
LINE
  5
81A
  8
1
  6
CONTINUOUS
 62
     7
 10
20325.01012228104
 20
-7154.753289137178
 30
0.0
 11
20321.58908355773
 21
-7115.650637599945
 31
0.0
  0
LINE
  5
81B
  8
1
  6
CONTINUOUS
 62
     7
 10
20506.29167402517
 20
-7425.920885037573
 30
0.0
 11
20643.4165010548
 21
-7413.92401718453
 31
0.0
  0
LINE
  5
81C
  8
1
  6
CONTINUOUS
 62
     7
 10
20004.98632774853
 20
-7425.920885037573
 30
0.0
 11
20049.91203619105
 21
-7429.851375227165
 31
0.0
  0
LINE
  5
81D
  8
1
  6
CONTINUOUS
 62
     7
 10
20044.076084502
 20
-7291.505225657322
 30
0.0
 11
19828.42118827048
 21
-7310.480253832978
 31
0.0
  0
LINE
  5
81E
  8
1
  6
DOT_CENTER
 62
     2
 10
20255.63900088685
 20
-7831.092669694179
 30
0.0
 11
20255.63900088685
 21
-6883.973482872209
 31
0.0
  0
LINE
  5
81F
  8
1
  6
CONTINUOUS
 62
     7
 10
20366.9614070856
 20
-7250.572061196604
 30
0.0
 11
20366.99607547792
 21
-7250.537392804284
 31
0.0
  0
LINE
  5
820
  8
1
  6
CONTINUOUS
 62
     7
 10
20461.36596558265
 20
-7429.851375227166
 30
0.0
 11
20643.4165010548
 21
-7413.92401718453
 31
0.0
  0
LINE
  5
821
  8
1
  6
CONTINUOUS
 62
     7
 10
20186.26787949266
 20
-7566.207218528782
 30
0.0
 11
20198.50312454539
 21
-7706.056709418489
 31
0.0
  0
LINE
  5
822
  8
1
  6
CONTINUOUS
 62
     7
 10
20369.65654339677
 20
-7365.480253832978
 30
0.0
 11
20685.63900088685
 21
-7365.480253832978
 31
0.0
  0
LINE
  5
823
  8
1
  6
CONTINUOUS
 62
     7
 10
20250.63900088685
 20
-7477.056709418489
 30
0.0
 11
20250.63900088685
 21
-7785.480253832978
 31
0.0
  0
LINE
  5
824
  8
1
  6
CONTINUOUS
 62
     7
 10
20685.63900088685
 20
-7355.480253832978
 30
0.0
 11
20369.65654339677
 21
-7355.480253832978
 31
0.0
  0
LINE
  5
825
  8
1
  6
LONG_DASHED
 62
     2
 10
20260.63900088685
 20
-7477.056709418489
 30
0.0
 11
20260.63900088685
 21
-7474.497796342901
 31
0.0
  0
LINE
  5
826
  8
1
  6
CONTINUOUS
 62
     7
 10
20365.58186191555
 20
-7249.123179241911
 30
0.0
 11
20358.87659094008
 21
-7255.828450217372
 31
0.0
  0
LINE
  5
827
  8
1
  6
CONTINUOUS
 62
     7
 10
20187.74096783161
 20
-7451.005703885132
 30
0.0
 11
20179.97857529944
 21
-7458.768096417456
 31
0.0
  0
LINE
  5
828
  8
1
  6
CONTINUOUS
 62
     7
 10
20341.90602819161
 20
-7272.799012965848
 30
0.0
 11
20325.63903660202
 21
-7289.06600455544
 31
0.0
  0
LINE
  5
829
  8
1
  6
CONTINUOUS
 62
     7
 10
20495.63900088685
 20
-7477.056709418489
 30
0.0
 11
20015.63900088685
 21
-7477.056709418489
 31
0.0
  0
LINE
  5
82A
  8
1
  6
CONTINUOUS
 62
     7
 10
20305.68259097497
 20
-7462.05670941849
 30
0.0
 11
20495.63900088685
 21
-7462.05670941849
 31
0.0
  0
LINE
  5
82B
  8
1
  6
CONTINUOUS
 62
     7
 10
20497.63900088685
 20
-7464.056709418489
 30
0.0
 11
20497.63900088685
 21
-7475.056709418488
 31
0.0
  0
LINE
  5
82C
  8
1
  6
LONG_DASHED
 62
     2
 10
20491.63900088685
 20
-7464.05670941849
 30
0.0
 11
20491.63900088685
 21
-7466.056709418489
 31
0.0
  0
LINE
  5
82D
  8
1
  6
CONTINUOUS
 62
     7
 10
20495.63900088685
 20
-7462.05670941849
 30
0.0
 11
20493.63900088685
 21
-7462.05670941849
 31
0.0
  0
LINE
  5
82E
  8
1
  6
LONG_DASHED
 62
     2
 10
20431.63900088685
 20
-7468.056709418489
 30
0.0
 11
20489.63900088685
 21
-7468.056709418489
 31
0.0
  0
LINE
  5
82F
  8
1
  6
LONG_DASHED
 62
     2
 10
20429.63900088685
 20
-7464.05670941849
 30
0.0
 11
20429.63900088685
 21
-7466.056709418489
 31
0.0
  0
LINE
  5
830
  8
1
  6
LONG_DASHED
 62
     2
 10
20425.63900088685
 20
-7462.05670941849
 30
0.0
 11
20427.63900088685
 21
-7462.05670941849
 31
0.0
  0
LINE
  5
831
  8
1
  6
LONG_DASHED
 62
     2
 10
20019.63900088685
 20
-7466.056709418489
 30
0.0
 11
20019.63900088685
 21
-7464.05670941849
 31
0.0
  0
LINE
  5
832
  8
1
  6
CONTINUOUS
 62
     7
 10
20017.63900088685
 20
-7462.05670941849
 30
0.0
 11
20015.63900088685
 21
-7462.05670941849
 31
0.0
  0
LINE
  5
833
  8
1
  6
LONG_DASHED
 62
     2
 10
20021.63900088685
 20
-7468.056709418489
 30
0.0
 11
20079.63900088685
 21
-7468.056709418489
 31
0.0
  0
LINE
  5
834
  8
1
  6
LONG_DASHED
 62
     2
 10
20081.63900088685
 20
-7466.056709418489
 30
0.0
 11
20081.63900088685
 21
-7464.05670941849
 31
0.0
  0
LINE
  5
835
  8
1
  6
LONG_DASHED
 62
     2
 10
20083.63900088685
 20
-7462.05670941849
 30
0.0
 11
20085.63900088685
 21
-7462.05670941849
 31
0.0
  0
LINE
  5
836
  8
1
  6
CONTINUOUS
 62
     7
 10
20013.63900088685
 20
-7475.056709418488
 30
0.0
 11
20013.63900088685
 21
-7464.056709418489
 31
0.0
  0
LINE
  5
837
  8
1
  6
CONTINUOUS
 62
     7
 10
20015.63900088685
 20
-7462.05670941849
 30
0.0
 11
20205.59541079873
 21
-7462.05670941849
 31
0.0
  0
LINE
  5
838
  8
1
  6
DOT_CENTER
 62
     2
 10
20720.63900088685
 20
-8737.42810177375
 30
0.0
 11
20720.63900088685
 21
-8771.0
 31
0.0
  0
LINE
  5
839
  8
1
  6
CONTINUOUS
 62
     7
 10
20702.63900088685
 20
-8702.0
 30
0.0
 11
20702.63900088685
 21
-8702.000000000004
 31
0.0
  0
LINE
  5
83A
  8
1
  6
DOT_CENTER
 62
     2
 10
20050.63900088685
 20
-8213.12799947973
 30
0.0
 11
20050.63900088685
 21
-8156.20086518324
 31
0.0
  0
LINE
  5
83B
  8
1
  6
PHANTOM
 62
     2
 10
20405.89264939388
 20
-8470.0
 30
0.0
 11
20380.77870322951
 21
-8539.0
 31
0.0
  0
LINE
  5
83C
  8
1
  6
PHANTOM
 62
     2
 10
20134.13900088685
 20
-8549.0
 30
0.0
 11
20130.49929854419
 21
-8539.0
 31
0.0
  0
LINE
  5
83D
  8
1
  6
PHANTOM
 62
     2
 10
20130.49929854419
 20
-8539.0
 30
0.0
 11
20380.77870322951
 21
-8539.0
 31
0.0
  0
LINE
  5
83E
  8
1
  6
PHANTOM
 62
     2
 10
20485.63900088685
 20
-8470.0
 30
0.0
 11
20405.89264939388
 21
-8470.0
 31
0.0
  0
LINE
  5
83F
  8
1
  6
PHANTOM
 62
     2
 10
20380.77870322951
 20
-8539.0
 30
0.0
 11
20377.13900088685
 21
-8549.0
 31
0.0
  0
LINE
  5
840
  8
1
  6
PHANTOM
 62
     2
 10
20377.13900088685
 20
-8549.0
 30
0.0
 11
20134.13900088685
 21
-8549.0
 31
0.0
  0
LINE
  5
841
  8
1
  6
PHANTOM
 62
     2
 10
20405.89264939388
 20
-8470.0
 30
0.0
 11
20105.38535237982
 21
-8470.0
 31
0.0
  0
LINE
  5
842
  8
1
  6
PHANTOM
 62
     2
 10
20130.49929854419
 20
-8539.0
 30
0.0
 11
20105.38535237982
 21
-8470.0
 31
0.0
  0
LINE
  5
843
  8
1
  6
PHANTOM
 62
     2
 10
20485.63900088685
 20
-8197.26856117713
 30
0.0
 11
20485.63900088685
 21
-8310.26856117713
 31
0.0
  0
LINE
  5
844
  8
1
  6
PHANTOM
 62
     2
 10
20485.63900088685
 20
-8310.26856117713
 30
0.0
 11
20485.63900088685
 21
-8197.26856117713
 31
0.0
  0
LINE
  5
845
  8
1
  6
PHANTOM
 62
     2
 10
20490.63900088685
 20
-8310.26856117713
 30
0.0
 11
20485.63900088685
 21
-8310.26856117713
 31
0.0
  0
LINE
  5
846
  8
1
  6
PHANTOM
 62
     2
 10
20490.63900088685
 20
-8197.26856117713
 30
0.0
 11
20490.63900088685
 21
-8310.26856117713
 31
0.0
  0
LINE
  5
847
  8
1
  6
PHANTOM
 62
     2
 10
20485.63900088685
 20
-8197.26856117713
 30
0.0
 11
20490.63900088685
 21
-8197.26856117713
 31
0.0
  0
LINE
  5
848
  8
1
  6
PHANTOM
 62
     2
 10
20025.63900088685
 20
-8470.0
 30
0.0
 11
20025.63900088685
 21
-8310.26856117713
 31
0.0
  0
LINE
  5
849
  8
1
  6
PHANTOM
 62
     2
 10
20025.63900088685
 20
-8310.26856117713
 30
0.0
 11
20025.63900088685
 21
-8197.26856117713
 31
0.0
  0
LINE
  5
84A
  8
1
  6
PHANTOM
 62
     2
 10
20025.63900088685
 20
-8197.26856117713
 30
0.0
 11
20025.63900088685
 21
-8310.26856117713
 31
0.0
  0
LINE
  5
84B
  8
1
  6
PHANTOM
 62
     2
 10
20025.63900088685
 20
-8310.26856117713
 30
0.0
 11
20020.63900088685
 21
-8310.26856117713
 31
0.0
  0
LINE
  5
84C
  8
1
  6
PHANTOM
 62
     2
 10
20020.63900088685
 20
-8310.26856117713
 30
0.0
 11
20020.63900088685
 21
-8197.26856117713
 31
0.0
  0
LINE
  5
84D
  8
1
  6
PHANTOM
 62
     2
 10
20020.63900088685
 20
-8197.26856117713
 30
0.0
 11
20025.63900088685
 21
-8197.26856117713
 31
0.0
  0
LINE
  5
84E
  8
1
  6
PHANTOM
 62
     2
 10
20200.63900088685
 20
-8161.004560711399
 30
0.0
 11
20200.63900088685
 21
-8170.0
 31
0.0
  0
LINE
  5
84F
  8
1
  6
PHANTOM
 62
     2
 10
20255.63900088685
 20
-8141.004560711399
 30
0.0
 11
20220.63900088685
 21
-8141.004560711399
 31
0.0
  0
LINE
  5
850
  8
1
  6
PHANTOM
 62
     2
 10
20025.63900088685
 20
-8170.0
 30
0.0
 11
20297.63900088685
 21
-8170.0
 31
0.0
  0
LINE
  5
851
  8
1
  6
PHANTOM
 62
     2
 10
20310.63900088685
 20
-8170.0
 30
0.0
 11
20310.63900088685
 21
-8161.004560711399
 31
0.0
  0
LINE
  5
852
  8
1
  6
PHANTOM
 62
     2
 10
20290.63900088685
 20
-8141.004560711399
 30
0.0
 11
20255.63900088685
 21
-8141.004560711399
 31
0.0
  0
LINE
  5
853
  8
1
  6
PHANTOM
 62
     2
 10
20212.63166123966
 20
-8125.0
 30
0.0
 11
20255.63900088685
 21
-8125.0
 31
0.0
  0
LINE
  5
854
  8
1
  6
PHANTOM
 62
     2
 10
20170.63900088685
 20
-8151.850633090329
 30
0.0
 11
20212.63166123966
 21
-8125.0
 31
0.0
  0
LINE
  5
855
  8
1
  6
PHANTOM
 62
     2
 10
20170.63900088685
 20
-8170.0
 30
0.0
 11
20170.63900088685
 21
-8151.850633090329
 31
0.0
  0
LINE
  5
856
  8
1
  6
PHANTOM
 62
     2
 10
20255.63900088685
 20
-8125.0
 30
0.0
 11
20298.64634053404
 21
-8125.0
 31
0.0
  0
LINE
  5
857
  8
1
  6
PHANTOM
 62
     2
 10
20298.64634053404
 20
-8125.0
 30
0.0
 11
20340.63900088685
 21
-8151.850633090329
 31
0.0
  0
LINE
  5
858
  8
1
  6
PHANTOM
 62
     2
 10
20297.63900088685
 20
-8170.0
 30
0.0
 11
20340.63900088685
 21
-8170.0
 31
0.0
  0
LINE
  5
859
  8
1
  6
PHANTOM
 62
     2
 10
20340.63900088685
 20
-8151.850633090329
 30
0.0
 11
20340.63900088685
 21
-8170.0
 31
0.0
  0
LINE
  5
85A
  8
1
  6
PHANTOM
 62
     2
 10
20025.63900088685
 20
-8197.26856117713
 30
0.0
 11
20025.63900088685
 21
-8170.0
 31
0.0
  0
LINE
  5
85B
  8
1
  6
PHANTOM
 62
     2
 10
20340.63900088685
 20
-8170.0
 30
0.0
 11
20485.63900088685
 21
-8170.0
 31
0.0
  0
LINE
  5
85C
  8
1
  6
PHANTOM
 62
     2
 10
20485.63900088685
 20
-8170.0
 30
0.0
 11
20485.63900088685
 21
-8470.0
 31
0.0
  0
LINE
  5
85D
  8
1
  6
PHANTOM
 62
     2
 10
20105.38535237982
 20
-8470.0
 30
0.0
 11
20025.63900088685
 21
-8470.0
 31
0.0
  0
LINE
  5
85E
  8
1
  6
DOT_CENTER
 62
     2
 10
20345.63900088685
 20
-7360.480253832979
 30
0.0
 11
20129.77230818978
 21
-7360.480253832979
 31
0.0
  0
LINE
  5
85F
  8
1
  6
CONTINUOUS
 62
     7
 10
20302.30804844516
 20
-7313.811206274666
 30
0.0
 11
20304.42936878872
 21
-7311.689885931106
 31
0.0
  0
LINE
  5
860
  8
1
  6
CONTINUOUS
 62
     7
 10
20304.42936878872
 20
-7311.689885931106
 30
0.0
 11
20305.13647556991
 21
-7310.982779149921
 31
0.0
  0
LINE
  5
861
  8
1
  6
DOT_CENTER
 62
     2
 10
20208.96995332854
 20
-7313.811206274668
 30
0.0
 11
20206.84863298498
 21
-7311.689885931108
 31
0.0
  0
LINE
  5
862
  8
1
  6
DOT_CENTER
 62
     2
 10
20206.84863298498
 20
-7311.689885931108
 30
0.0
 11
20206.14152620379
 21
-7310.982779149921
 31
0.0
  0
LINE
  5
863
  8
1
  6
DOT_CENTER
 62
     2
 10
20208.96995332854
 20
-7407.149301391292
 30
0.0
 11
20206.84863298498
 21
-7409.270621734852
 31
0.0
  0
LINE
  5
864
  8
1
  6
DOT_CENTER
 62
     2
 10
20206.84863298498
 20
-7409.270621734852
 30
0.0
 11
20206.14152620379
 21
-7409.977728516038
 31
0.0
  0
LINE
  5
865
  8
1
  6
DOT_CENTER
 62
     2
 10
20255.63900088685
 20
-7236.24781425456
 30
0.0
 11
20255.63900088685
 21
-7315.480253832979
 31
0.0
  0
LINE
  5
866
  8
1
  6
DOT_CENTER
 62
     2
 10
20345.63900088685
 20
-7360.480253832979
 30
0.0
 11
20381.89371736547
 21
-7360.480253832979
 31
0.0
  0
LINE
  5
867
  8
1
  6
DOT_CENTER
 62
     2
 10
20255.63900088685
 20
-7315.480253832979
 30
0.0
 11
20255.63900088685
 21
-7481.267211904171
 31
0.0
  0
LINE
  5
868
  8
1
  6
PHANTOM
 62
     2
 10
20170.63900088685
 20
-7587.556709418489
 30
0.0
 11
20205.63900088685
 21
-7587.556709418489
 31
0.0
  0
LINE
  5
869
  8
1
  6
PHANTOM
 62
     2
 10
20305.63900088685
 20
-7567.556709418489
 30
0.0
 11
20205.63900088685
 21
-7567.556709418489
 31
0.0
  0
LINE
  5
86A
  8
1
  6
PHANTOM
 62
     2
 10
20205.63900088685
 20
-7587.556709418489
 30
0.0
 11
20205.63900088685
 21
-7567.556709418489
 31
0.0
  0
LINE
  5
86B
  8
1
  6
PHANTOM
 62
     2
 10
20340.63900088685
 20
-7567.556709418489
 30
0.0
 11
20305.63900088685
 21
-7567.556709418489
 31
0.0
  0
LINE
  5
86C
  8
1
  6
PHANTOM
 62
     2
 10
20205.63900088685
 20
-7587.556709418489
 30
0.0
 11
20305.63900088685
 21
-7587.556709418489
 31
0.0
  0
LINE
  5
86D
  8
1
  6
PHANTOM
 62
     2
 10
20305.63900088685
 20
-7587.556709418489
 30
0.0
 11
20305.63900088685
 21
-7567.556709418489
 31
0.0
  0
LINE
  5
86E
  8
1
  6
PHANTOM
 62
     2
 10
20340.63900088685
 20
-7587.556709418489
 30
0.0
 11
20340.63900088685
 21
-7567.556709418489
 31
0.0
  0
LINE
  5
86F
  8
1
  6
PHANTOM
 62
     2
 10
20205.63900088685
 20
-7567.556709418489
 30
0.0
 11
20170.63900088685
 21
-7567.556709418489
 31
0.0
  0
LINE
  5
870
  8
1
  6
PHANTOM
 62
     2
 10
20170.63900088685
 20
-7567.556709418489
 30
0.0
 11
20170.63900088685
 21
-7587.556709418489
 31
0.0
  0
LINE
  5
871
  8
1
  6
PHANTOM
 62
     2
 10
20305.63900088685
 20
-7587.556709418489
 30
0.0
 11
20340.63900088685
 21
-7587.556709418489
 31
0.0
  0
LINE
  5
872
  8
1
  6
PHANTOM
 62
     2
 10
20186.02494555412
 20
-7706.056709418489
 30
0.0
 11
20255.63900088685
 21
-7706.056709418489
 31
0.0
  0
LINE
  5
873
  8
1
  6
PHANTOM
 62
     2
 10
20182.02494555412
 20
-7727.056709418489
 30
0.0
 11
20186.02494555412
 21
-7706.056709418489
 31
0.0
  0
LINE
  5
874
  8
1
  6
PHANTOM
 62
     2
 10
20170.63900088685
 20
-7727.056709418489
 30
0.0
 11
20182.02494555412
 21
-7727.056709418489
 31
0.0
  0
LINE
  5
875
  8
1
  6
PHANTOM
 62
     2
 10
20255.63900088685
 20
-7706.056709418489
 30
0.0
 11
20325.25305621958
 21
-7706.056709418489
 31
0.0
  0
LINE
  5
876
  8
1
  6
PHANTOM
 62
     2
 10
20325.25305621958
 20
-7706.056709418489
 30
0.0
 11
20329.25305621958
 21
-7727.056709418489
 31
0.0
  0
LINE
  5
877
  8
1
  6
PHANTOM
 62
     2
 10
20329.25305621958
 20
-7727.056709418489
 30
0.0
 11
20340.63900088685
 21
-7727.056709418489
 31
0.0
  0
LINE
  5
878
  8
1
  6
PHANTOM
 62
     2
 10
20027.63900088685
 20
-7699.056709418489
 30
0.0
 11
20027.63900088685
 21
-7684.056709418489
 31
0.0
  0
LINE
  5
879
  8
1
  6
PHANTOM
 62
     2
 10
20025.63900088685
 20
-7684.056709418489
 30
0.0
 11
20027.63900088685
 21
-7684.056709418489
 31
0.0
  0
LINE
  5
87A
  8
1
  6
PHANTOM
 62
     2
 10
20025.63900088685
 20
-7684.056709418489
 30
0.0
 11
20483.63900088685
 21
-7684.056709418489
 31
0.0
  0
LINE
  5
87B
  8
1
  6
PHANTOM
 62
     2
 10
20340.63900088685
 20
-7699.056709418489
 30
0.0
 11
20483.63900088685
 21
-7699.056709418489
 31
0.0
  0
LINE
  5
87C
  8
1
  6
PHANTOM
 62
     2
 10
20483.63900088685
 20
-7684.056709418489
 30
0.0
 11
20483.63900088685
 21
-7699.056709418489
 31
0.0
  0
LINE
  5
87D
  8
1
  6
PHANTOM
 62
     2
 10
20025.63900088685
 20
-7477.056709418489
 30
0.0
 11
20025.63900088685
 21
-7684.056709418489
 31
0.0
  0
LINE
  5
87E
  8
1
  6
PHANTOM
 62
     2
 10
20483.63900088685
 20
-7684.056709418489
 30
0.0
 11
20485.63900088685
 21
-7684.056709418489
 31
0.0
  0
LINE
  5
87F
  8
1
  6
PHANTOM
 62
     2
 10
20170.63900088685
 20
-7699.056709418489
 30
0.0
 11
20340.63900088685
 21
-7699.056709418489
 31
0.0
  0
LINE
  5
880
  8
1
  6
PHANTOM
 62
     2
 10
20340.63900088685
 20
-7727.056709418489
 30
0.0
 11
20340.63900088685
 21
-7699.056709418489
 31
0.0
  0
LINE
  5
881
  8
1
  6
PHANTOM
 62
     2
 10
20027.63900088685
 20
-7699.056709418489
 30
0.0
 11
20170.63900088685
 21
-7699.056709418489
 31
0.0
  0
LINE
  5
882
  8
1
  6
PHANTOM
 62
     2
 10
20170.63900088685
 20
-7727.056709418489
 30
0.0
 11
20170.63900088685
 21
-7699.056709418489
 31
0.0
  0
LINE
  5
883
  8
1
  6
CONTINUOUS
 62
     7
 10
20038.63900088685
 20
-7462.056709418489
 30
0.0
 11
20062.63900088685
 21
-7462.056709418489
 31
0.0
  0
LINE
  5
884
  8
1
  6
CONTINUOUS
 62
     7
 10
20056.63900088685
 20
-7477.056709418489
 30
0.0
 11
20044.63900088685
 21
-7477.056709418489
 31
0.0
  0
LINE
  5
885
  8
1
  6
CONTINUOUS
 62
     7
 10
20044.63900088685
 20
-7477.056709418489
 30
0.0
 11
20056.63900088685
 21
-7477.056709418489
 31
0.0
  0
LINE
  5
886
  8
1
  6
CONTINUOUS
 62
     7
 10
20056.63900088685
 20
-7467.056709418489
 30
0.0
 11
20044.63900088685
 21
-7467.056709418489
 31
0.0
  0
LINE
  5
887
  8
1
  6
DOT_CENTER
 62
     2
 10
20050.63900088685
 20
-7497.855844235249
 30
0.0
 11
20050.63900088685
 21
-7447.928709938759
 31
0.0
  0
LINE
  5
888
  8
1
  6
CONTINUOUS
 62
     7
 10
20448.63900088685
 20
-7462.056709418489
 30
0.0
 11
20472.63900088685
 21
-7462.056709418489
 31
0.0
  0
LINE
  5
889
  8
1
  6
CONTINUOUS
 62
     7
 10
20466.63900088685
 20
-7477.056709418489
 30
0.0
 11
20454.63900088685
 21
-7477.056709418489
 31
0.0
  0
LINE
  5
88A
  8
1
  6
CONTINUOUS
 62
     7
 10
20485.63900088685
 20
-7477.056709418489
 30
0.0
 11
20466.63900088685
 21
-7477.056709418489
 31
0.0
  0
LINE
  5
88B
  8
1
  6
CONTINUOUS
 62
     7
 10
20454.63900088685
 20
-7477.056709418489
 30
0.0
 11
20466.63900088685
 21
-7477.056709418489
 31
0.0
  0
LINE
  5
88C
  8
1
  6
CONTINUOUS
 62
     7
 10
20466.63900088685
 20
-7467.056709418489
 30
0.0
 11
20454.63900088685
 21
-7467.056709418489
 31
0.0
  0
LINE
  5
88D
  8
1
  6
DOT_CENTER
 62
     2
 10
20460.63900088685
 20
-7447.928709938759
 30
0.0
 11
20460.63900088685
 21
-7497.855844235249
 31
0.0
  0
LINE
  5
88E
  8
1
  6
PHANTOM
 62
     2
 10
20485.63900088685
 20
-7684.056709418489
 30
0.0
 11
20485.63900088685
 21
-7477.056709418489
 31
0.0
  0
LINE
  5
88F
  8
1
  6
CONTINUOUS
 62
     7
 10
20454.63900088685
 20
-7477.056709418489
 30
0.0
 11
20025.63900088685
 21
-7477.056709418489
 31
0.0
  0
LINE
  5
890
  8
1
  6
CONTINUOUS
 62
     7
 10
20428.31309907905
 20
-8170.0
 30
0.0
 11
20434.47604998295
 21
-8163.837049096097
 31
0.0
  0
LINE
  5
891
  8
1
  6
CONTINUOUS
 62
     7
 10
20082.96490269466
 20
-8170.0
 30
0.0
 11
20114.21764464954
 21
-8201.252741954886
 31
0.0
  0
LINE
  5
892
  8
1
  6
CONTINUOUS
 62
     7
 10
20345.63900088685
 20
-8470.0
 30
0.0
 11
20345.63900088685
 21
-8105.000000000001
 31
0.0
  0
LINE
  5
893
  8
1
  6
CONTINUOUS
 62
     7
 10
20165.63900088685
 20
-8470.0
 30
0.0
 11
20165.63900088685
 21
-8105.000000000001
 31
0.0
  0
LINE
  5
894
  8
1
  6
CONTINUOUS
 62
     7
 10
20345.63900088685
 20
-8539.0
 30
0.0
 11
20345.63900088685
 21
-8470.0
 31
0.0
  0
LINE
  5
895
  8
1
  6
PHANTOM
 62
     2
 10
20345.63900088685
 20
-8549.0
 30
0.0
 11
20345.63900088685
 21
-8539.0
 31
0.0
  0
LINE
  5
896
  8
1
  6
PHANTOM
 62
     2
 10
20165.63900088685
 20
-8549.0
 30
0.0
 11
20165.63900088685
 21
-8539.0
 31
0.0
  0
LINE
  5
897
  8
1
  6
CONTINUOUS
 62
     7
 10
20165.63900088685
 20
-8539.0
 30
0.0
 11
20165.63900088685
 21
-8470.0
 31
0.0
  0
LINE
  5
898
  8
1
  6
CONTINUOUS
 62
     7
 10
20312.77487722831
 20
-7706.056709418489
 30
0.0
 11
20325.01012228104
 21
-7566.207218528782
 31
0.0
  0
LINE
  5
899
  8
1
  6
CONTINUOUS
 62
     7
 10
20198.50312454539
 20
-7706.056709418489
 30
0.0
 11
20205.63900088685
 21
-7787.620149227481
 31
0.0
  0
LINE
  5
89A
  8
1
  6
CONTINUOUS
 62
     7
 10
20702.63900088685
 20
-8702.000000000004
 30
0.0
 11
20726.24560260465
 21
-8702.000000000004
 31
0.0
  0
LINE
  5
89B
  8
1
  6
CONTINUOUS
 62
     7
 10
20702.63900088685
 20
-8702.000000000004
 30
0.0
 11
20695.63900088685
 21
-8702.000000000004
 31
0.0
  0
LINE
  5
89C
  8
1
  6
CONTINUOUS
 62
     7
 10
20702.63900088685
 20
-8702.000000000004
 30
0.0
 11
20695.63900088685
 21
-8702.000000000004
 31
0.0
  0
LINE
  5
89D
  8
1
  6
CONTINUOUS
 62
     7
 10
20705.63900088685
 20
-8712.000000000004
 30
0.0
 11
20705.63900088685
 21
-8718.999999999993
 31
0.0
  0
LINE
  5
89E
  8
1
  6
CONTINUOUS
 62
     7
 10
20695.63900088685
 20
-8702.000000000004
 30
0.0
 11
20590.68760159384
 21
-8702.0
 31
0.0
  0
LINE
  5
89F
  8
1
  6
CONTINUOUS
 62
     7
 10
20695.63900088685
 20
-8702.000000000004
 30
0.0
 11
20605.63900088685
 21
-8702.0
 31
0.0
  0
LINE
  5
8A0
  8
1
  6
CONTINUOUS
 62
     7
 10
20703.13900088685
 20
-7410.480253832979
 30
0.0
 11
20682.77889628135
 21
-7410.480253832979
 31
0.0
  0
LINE
  5
8A1
  8
1
  6
CONTINUOUS
 62
     7
 10
20705.63997825518
 20
-7315.480253832978
 30
0.0
 11
20705.63997825518
 21
-7322.196959953849
 31
0.0
  0
LINE
  5
8A2
  8
1
  6
DOT_CENTER
 62
     2
 10
20735.63900088685
 20
-7360.480253832979
 30
0.0
 11
20726.63900088685
 21
-7360.480253832979
 31
0.0
  0
LINE
  5
8A3
  8
1
  6
CONTINUOUS
 62
     7
 10
20707.10444434925
 20
-7325.732493859781
 30
0.0
 11
20713.56393464107
 21
-7332.191984151599
 31
0.0
  0
LINE
  5
8A4
  8
1
  6
CONTINUOUS
 62
     7
 10
20705.63997825518
 20
-7398.763547712111
 30
0.0
 11
20705.63997825518
 21
-7407.980253832979
 31
0.0
  0
LINE
  5
8A5
  8
1
  6
CONTINUOUS
 62
     7
 10
20707.10444434925
 20
-7395.228013806177
 30
0.0
 11
20713.56393464148
 21
-7388.768523513952
 31
0.0
  0
LINE
  5
8A6
  8
1
  6
CONTINUOUS
 62
     2
 10
20708.33682766658
 20
-8711.473216553793
 30
0.0
 11
20729.82288517065
 21
-8707.277802859142
 31
0.0
  0
LINE
  5
8A7
  8
1
  6
DOT_CENTER
 62
     2
 10
20255.63900088685
 20
-6889.480253832977
 30
0.0
 11
20255.63900088685
 21
-6890.480253832977
 31
0.0
  0
LINE
  5
8A8
  8
1
  6
DOT_CENTER
 62
     2
 10
20244.86226917056
 20
-6895.480253832977
 30
0.0
 11
20267.86226917056
 21
-6895.480253832977
 31
0.0
  0
LINE
  5
8A9
  8
1
  6
DOT_CENTER
 62
     2
 10
20255.63900088685
 20
-6877.629723807268
 30
0.0
 11
20255.63900088685
 21
-6880.480253832977
 31
0.0
  0
LINE
  5
8AA
  8
1
  6
CONTINUOUS
 62
     7
 10
20210.63900088685
 20
-6910.479276464645
 30
0.0
 11
20217.35570700772
 21
-6910.479276464645
 31
0.0
  0
LINE
  5
8AB
  8
1
  6
DOT_CENTER
 62
     2
 10
20255.63900088685
 20
-6880.480253832977
 30
0.0
 11
20255.63900088685
 21
-6889.480253832977
 31
0.0
  0
LINE
  5
8AC
  8
1
  6
CONTINUOUS
 62
     7
 10
20220.89124091365
 20
-6909.014810370578
 30
0.0
 11
20227.35073120547
 21
-6902.555320078758
 31
0.0
  0
LINE
  5
8AD
  8
1
  6
CONTINUOUS
 62
     7
 10
20293.92229476598
 20
-6910.479276464645
 30
0.0
 11
20303.13900088685
 21
-6910.479276464645
 31
0.0
  0
LINE
  5
8AE
  8
1
  6
CONTINUOUS
 62
     7
 10
20290.38676086005
 20
-6909.01481037058
 30
0.0
 11
20283.92727056782
 21
-6902.555320078353
 31
0.0
  0
LINE
  5
8AF
  8
1
  6
DOT_CENTER
 62
     2
 10
19784.63900088685
 20
-7360.480253832978
 30
0.0
 11
19785.63900088685
 21
-7360.480253832978
 31
0.0
  0
LINE
  5
8B0
  8
1
  6
DOT_CENTER
 62
     2
 10
19790.63900088685
 20
-7371.256985549267
 30
0.0
 11
19790.63900088685
 21
-7348.256985549267
 31
0.0
  0
LINE
  5
8B1
  8
1
  6
DOT_CENTER
 62
     2
 10
19772.78847086114
 20
-7360.480253832978
 30
0.0
 11
19775.63900088685
 21
-7360.480253832978
 31
0.0
  0
LINE
  5
8B2
  8
1
  6
CONTINUOUS
 62
     7
 10
19805.63802351851
 20
-7405.480253832979
 30
0.0
 11
19805.63802351851
 21
-7398.763547712108
 31
0.0
  0
LINE
  5
8B3
  8
1
  6
DOT_CENTER
 62
     2
 10
19775.63900088685
 20
-7360.480253832978
 30
0.0
 11
19784.63900088685
 21
-7360.480253832978
 31
0.0
  0
LINE
  5
8B4
  8
1
  6
CONTINUOUS
 62
     7
 10
19804.17355742445
 20
-7395.228013806175
 30
0.0
 11
19789.38654263598
 21
-7380.440999017711
 31
0.0
  0
LINE
  5
8B5
  8
1
  6
CONTINUOUS
 62
     7
 10
19805.63802351851
 20
-7322.196959953845
 30
0.0
 11
19805.63802351851
 21
-7312.980253832978
 31
0.0
  0
LINE
  5
8B6
  8
1
  6
CONTINUOUS
 62
     7
 10
19804.17355742445
 20
-7325.732493859779
 30
0.0
 11
19789.38654263598
 21
-7340.519508648245
 31
0.0
  0
LINE
  5
8B7
  8
1
  6
DOT_CENTER
 62
     2
 10
20255.63900088685
 20
-7831.480253832981
 30
0.0
 11
20255.63900088685
 21
-7830.480253832981
 31
0.0
  0
LINE
  5
8B8
  8
1
  6
DOT_CENTER
 62
     2
 10
20266.41573260314
 20
-7825.480253832981
 30
0.0
 11
20243.41573260314
 21
-7825.480253832981
 31
0.0
  0
LINE
  5
8B9
  8
1
  6
DOT_CENTER
 62
     2
 10
20255.63900088685
 20
-7843.33078385869
 30
0.0
 11
20255.63900088685
 21
-7840.480253832981
 31
0.0
  0
LINE
  5
8BA
  8
1
  6
CONTINUOUS
 62
     7
 10
20300.63900088685
 20
-7810.481231201313
 30
0.0
 11
20293.92229476598
 21
-7810.481231201313
 31
0.0
  0
LINE
  5
8BB
  8
1
  6
DOT_CENTER
 62
     2
 10
20255.63900088685
 20
-7840.480253832981
 30
0.0
 11
20255.63900088685
 21
-7831.480253832981
 31
0.0
  0
LINE
  5
8BC
  8
1
  6
CONTINUOUS
 62
     7
 10
20290.38676086005
 20
-7811.945697295379
 30
0.0
 11
20283.92727056782
 21
-7818.405187587606
 31
0.0
  0
LINE
  5
8BD
  8
1
  6
CONTINUOUS
 62
     7
 10
20217.35570700772
 20
-7810.481231201313
 30
0.0
 11
20208.13900088685
 21
-7810.481231201313
 31
0.0
  0
LINE
  5
8BE
  8
1
  6
CONTINUOUS
 62
     7
 10
20220.89124091365
 20
-7811.945697295378
 30
0.0
 11
20227.35073120547
 21
-7818.405187587198
 31
0.0
  0
LINE
  5
8BF
  8
1
  6
CONTINUOUS
 62
     7
 10
20205.63900088685
 20
-6933.340358438476
 30
0.0
 11
20205.63900088685
 21
-6915.479276464645
 31
0.0
  0
LINE
  5
8C0
  8
1
  6
CONTINUOUS
 62
     7
 10
19828.49910549235
 20
-7410.480253832978
 30
0.0
 11
19810.63802351851
 21
-7410.480253832979
 31
0.0
  0
LINE
  5
8C1
  8
1
  6
CONTINUOUS
 62
     7
 10
20305.63900088685
 20
-7787.620149227481
 30
0.0
 11
20305.63900088685
 21
-7805.481231201313
 31
0.0
  0
LINE
  5
8C2
  8
1
  6
CONTINUOUS
 62
     7
 10
20305.63900088685
 20
-6912.980253832977
 30
0.0
 11
20305.63900088685
 21
-6933.340358438476
 31
0.0
  0
LINE
  5
8C3
  8
1
  6
CONTINUOUS
 62
     7
 10
19808.13900088685
 20
-7310.480253832978
 30
0.0
 11
19828.49910549235
 21
-7310.480253832978
 31
0.0
  0
LINE
  5
8C4
  8
1
  6
CONTINUOUS
 62
     7
 10
20205.63900088685
 20
-7807.980253832981
 30
0.0
 11
20205.63900088685
 21
-7787.620149227481
 31
0.0
  0
LINE
  5
8C5
  8
1
  6
CONTINUOUS
 62
     7
 10
20305.63900088685
 20
-7787.620149227481
 30
0.0
 11
20312.77487722831
 21
-7706.056709418489
 31
0.0
  0
LINE
  5
8C6
  8
1
  6
CONTINUOUS
 62
     7
 10
19828.49910549235
 20
-7410.480253832978
 30
0.0
 11
20004.98632774853
 21
-7425.920885037573
 31
0.0
  0
LINE
  5
8C7
  8
1
  6
CONTINUOUS
 62
     7
 10
20205.7892567778
 20
-6931.622925746179
 30
0.0
 11
20189.68891821597
 21
-7115.650637600053
 31
0.0
  0
LINE
  5
8C8
  8
1
  6
CONTINUOUS
 62
     7
 10
20303.63900088685
 20
-8702.0
 30
0.0
 11
20270.63900088685
 21
-8702.0
 31
0.0
  0
LINE
  5
8C9
  8
1
  6
CONTINUOUS
 62
     7
 10
20270.63900088685
 20
-8702.0
 30
0.0
 11
20270.63900088685
 21
-8694.999999999998
 31
0.0
  0
LINE
  5
8CA
  8
1
  6
CONTINUOUS
 62
     7
 10
20207.63900088685
 20
-8702.0
 30
0.0
 11
20240.63900088685
 21
-8702.0
 31
0.0
  0
LINE
  5
8CB
  8
1
  6
CONTINUOUS
 62
     7
 10
20240.63900088685
 20
-8702.0
 30
0.0
 11
20240.63900088685
 21
-8719.0
 31
0.0
  0
LINE
  5
8CC
  8
1
  6
CONTINUOUS
 62
     2
 10
20260.13900088685
 20
-8670.999999999998
 30
0.0
 11
20260.13900088685
 21
-8656.998995409176
 31
0.0
  0
LINE
  5
8CD
  8
1
  6
CONTINUOUS
 62
     7
 10
20261.63900088685
 20
-8670.999999999998
 30
0.0
 11
20261.63900088685
 21
-8656.998995409176
 31
0.0
  0
LINE
  5
8CE
  8
1
  6
CONTINUOUS
 62
     7
 10
20249.63900088685
 20
-8656.998995409176
 30
0.0
 11
20249.63900088685
 21
-8670.999999999998
 31
0.0
  0
LINE
  5
8CF
  8
1
  6
CONTINUOUS
 62
     2
 10
20251.13900088685
 20
-8656.998995409176
 30
0.0
 11
20251.13900088685
 21
-8670.999999999998
 31
0.0
  0
LINE
  5
8D0
  8
1
  6
LONG_DASHED
 62
     2
 10
20713.56393464107
 20
-7332.191984151599
 30
0.0
 11
20731.24560260465
 21
-7349.87365211518
 31
0.0
  0
LINE
  5
8D1
  8
1
  6
LONG_DASHED
 62
     2
 10
20713.56393464148
 20
-7388.768523513952
 30
0.0
 11
20731.24560260465
 21
-7371.086855550777
 31
0.0
  0
LINE
  5
8D2
  8
1
  6
LONG_DASHED
 62
     2
 10
20283.92727056782
 20
-6902.555320078353
 30
0.0
 11
20266.24560260465
 21
-6884.873652115179
 31
0.0
  0
LINE
  5
8D3
  8
1
  6
LONG_DASHED
 62
     2
 10
20227.35073120547
 20
-6902.555320078758
 30
0.0
 11
20245.03239916905
 21
-6884.873652115179
 31
0.0
  0
LINE
  5
8D4
  8
1
  6
LONG_DASHED
 62
     2
 10
20283.92727056782
 20
-7818.405187587606
 30
0.0
 11
20266.24560260465
 21
-7836.086855550779
 31
0.0
  0
LINE
  5
8D5
  8
1
  6
LONG_DASHED
 62
     2
 10
20227.35073120547
 20
-7818.405187587198
 30
0.0
 11
20245.03239916905
 21
-7836.086855550779
 31
0.0
  0
LINE
  5
8D6
  8
1
  6
CONTINUOUS
 62
     7
 10
19789.38654263598
 20
-7380.440999017711
 30
0.0
 11
19780.03239916905
 21
-7371.086855550776
 31
0.0
  0
LINE
  5
8D7
  8
1
  6
CONTINUOUS
 62
     7
 10
19789.38654263598
 20
-7340.519508648245
 30
0.0
 11
19780.03239916905
 21
-7349.87365211518
 31
0.0
  0
LINE
  5
8D8
  8
1
  6
DOT_CENTER
 62
     2
 10
20263.12208660695
 20
-8459.831385717574
 30
0.0
 11
20260.63900088685
 21
-8459.831385717574
 31
0.0
  0
LINE
  5
8D9
  8
1
  6
DOT_CENTER
 62
     2
 10
20260.63900088685
 20
-8459.831385717574
 30
0.0
 11
20248.12208660695
 21
-8459.831385717574
 31
0.0
  0
LINE
  5
8DA
  8
1
  6
CONTINUOUS
 62
     2
 10
20353.03990303712
 20
-8010.000000000001
 30
0.0
 11
20255.63900088685
 21
-8010.000000000001
 31
0.0
  0
LINE
  5
8DB
  8
1
  6
DOT_CENTER
 62
     2
 10
20255.63900088685
 20
-8010.000000000001
 30
0.0
 11
20255.63900088685
 21
-7966.549645042202
 31
0.0
  0
LINE
  5
8DC
  8
1
  6
CONTINUOUS
 62
     2
 10
20255.63900088685
 20
-8010.000000000001
 30
0.0
 11
20158.23809873658
 21
-8010.000000000001
 31
0.0
  0
LINE
  5
8DD
  8
1
  6
CONTINUOUS
 62
     7
 10
20155.63900088686
 20
-8015.000000000001
 30
0.0
 11
20155.63900088686
 21
-8015.000000000001
 31
0.0
  0
LINE
  5
8DE
  8
1
  6
CONTINUOUS
 62
     7
 10
20155.63900088686
 20
-8010.000000000001
 30
0.0
 11
20155.63900088686
 21
-8015.000000000001
 31
0.0
  0
LINE
  5
8DF
  8
1
  6
CONTINUOUS
 62
     7
 10
20160.63900088686
 20
-8005.000000000001
 30
0.0
 11
20210.63900088684
 21
-8005.000000000001
 31
0.0
  0
LINE
  5
8E0
  8
1
  6
CONTINUOUS
 62
     7
 10
20155.63900088686
 20
-8010.000000000001
 30
0.0
 11
20155.63900088683
 21
-8015.000000000001
 31
0.0
  0
LINE
  5
8E1
  8
1
  6
LONG_DASHED
 62
     2
 10
21956.63900088686
 20
-8777.0
 30
0.0
 11
21956.63900088685
 21
-8777.0
 31
0.0
  0
LINE
  5
8E2
  8
1
  6
CONTINUOUS
 62
     7
 10
21956.63900088685
 20
-8777.0
 30
0.0
 11
21966.63900088685
 21
-8777.0
 31
0.0
  0
LINE
  5
8E3
  8
1
  6
CONTINUOUS
 62
     7
 10
22341.63900088685
 20
-8691.999999999998
 30
0.0
 11
22321.63900088685
 21
-8691.999999999998
 31
0.0
  0
LINE
  5
8E4
  8
1
  6
CONTINUOUS
 62
     7
 10
22321.63900088685
 20
-8691.999999999998
 30
0.0
 11
22318.63900088685
 21
-8691.999999999998
 31
0.0
  0
LINE
  5
8E5
  8
1
  6
CONTINUOUS
 62
     7
 10
22341.63900088685
 20
-8691.999999999998
 30
0.0
 11
22341.63900088685
 21
-8689.999999999998
 31
0.0
  0
LINE
  5
8E6
  8
1
  6
CONTINUOUS
 62
     7
 10
22321.63900088685
 20
-8691.999999999998
 30
0.0
 11
22341.63900088685
 21
-8691.999999999998
 31
0.0
  0
LINE
  5
8E7
  8
1
  6
CONTINUOUS
 62
     7
 10
22321.63900088685
 20
-8689.999999999998
 30
0.0
 11
22321.63900088685
 21
-8691.999999999998
 31
0.0
  0
LINE
  5
8E8
  8
1
  6
CONTINUOUS
 62
     7
 10
22341.63900088685
 20
-8689.999999999998
 30
0.0
 11
22321.63900088685
 21
-8689.999999999998
 31
0.0
  0
LINE
  5
8E9
  8
1
  6
CONTINUOUS
 62
     2
 10
22336.13900088685
 20
-8670.999999999998
 30
0.0
 11
22336.13900088685
 21
-8656.998995409176
 31
0.0
  0
LINE
  5
8EA
  8
1
  6
CONTINUOUS
 62
     7
 10
22337.63900088685
 20
-8670.999999999998
 30
0.0
 11
22337.63900088685
 21
-8656.998995409176
 31
0.0
  0
LINE
  5
8EB
  8
1
  6
CONTINUOUS
 62
     7
 10
22325.63900088685
 20
-8656.998995409176
 30
0.0
 11
22325.63900088685
 21
-8670.999999999998
 31
0.0
  0
LINE
  5
8EC
  8
1
  6
CONTINUOUS
 62
     2
 10
22327.13900088685
 20
-8656.998995409176
 30
0.0
 11
22327.13900088685
 21
-8670.999999999998
 31
0.0
  0
LINE
  5
8ED
  8
1
  6
CONTINUOUS
 62
     2
 10
22344.63900088685
 20
-8694.999999999998
 30
0.0
 11
22316.81965894634
 21
-8694.999999999998
 31
0.0
  0
LINE
  5
8EE
  8
1
  6
CONTINUOUS
 62
     2
 10
22317.31995662879
 20
-8718.999999999998
 30
0.0
 11
22345.63900088685
 21
-8718.999999999998
 31
0.0
  0
LINE
  5
8EF
  8
1
  6
CONTINUOUS
 62
     7
 10
22313.6387032044
 20
-8692.0
 30
0.0
 11
22312.63900088685
 21
-8692.0
 31
0.0
  0
LINE
  5
8F0
  8
1
  6
CONTINUOUS
 62
     7
 10
22318.63900088685
 20
-8692.0
 30
0.0
 11
22313.6387032044
 21
-8692.0
 31
0.0
  0
LINE
  5
8F1
  8
1
  6
CONTINUOUS
 62
     7
 10
22346.63900088685
 20
-8718.999999999998
 30
0.0
 11
22346.63900088685
 21
-8694.999999999998
 31
0.0
  0
LINE
  5
8F2
  8
1
  6
CONTINUOUS
 62
     7
 10
22343.63900088685
 20
-8691.999999999998
 30
0.0
 11
22341.63900088685
 21
-8691.999999999998
 31
0.0
  0
LINE
  5
8F3
  8
1
  6
CONTINUOUS
 62
     7
 10
22319.63900088685
 20
-8721.999999999998
 30
0.0
 11
22343.63900088685
 21
-8721.999999999998
 31
0.0
  0
LINE
  5
8F4
  8
1
  6
LONG_DASHED
 62
     2
 10
21956.63900088686
 20
-8771.0
 30
0.0
 11
21956.63900088685
 21
-8617.0
 31
0.0
  0
LINE
  5
8F5
  8
1
  6
LONG_DASHED
 62
     2
 10
21956.63900088686
 20
-8771.0
 30
0.0
 11
21951.63900088685
 21
-8771.0
 31
0.0
  0
LINE
  5
8F6
  8
1
  6
CONTINUOUS
 62
     7
 10
21956.63900088685
 20
-8617.0
 30
0.0
 11
21966.63900088685
 21
-8617.0
 31
0.0
  0
LINE
  5
8F7
  8
1
  6
LONG_DASHED
 62
     2
 10
21956.63900088685
 20
-8777.0
 30
0.0
 11
21956.63900088686
 21
-8771.0
 31
0.0
  0
LINE
  5
8F8
  8
1
  6
CONTINUOUS
 62
     7
 10
22311.63900088685
 20
-8692.0
 30
0.0
 11
22313.63900088685
 21
-8692.0
 31
0.0
  0
LINE
  5
8F9
  8
1
  6
CONTINUOUS
 62
     7
 10
22301.63900088685
 20
-8680.636964869083
 30
0.0
 11
22301.63900088685
 21
-8682.0
 31
0.0
  0
LINE
  5
8FA
  8
1
  6
CONTINUOUS
 62
     7
 10
22313.63900088685
 20
-8702.0
 30
0.0
 11
22313.63900088685
 21
-8702.000000000004
 31
0.0
  0
LINE
  5
8FB
  8
1
  6
CONTINUOUS
 62
     7
 10
21971.63900088685
 20
-8772.0
 30
0.0
 11
21971.63900088685
 21
-8623.153036219815
 31
0.0
  0
LINE
  5
8FC
  8
1
  6
CONTINUOUS
 62
     7
 10
22293.0939407918
 20
-8670.743373515435
 30
0.0
 11
21980.41998579519
 21
-8633.078458236349
 31
0.0
  0
LINE
  5
8FD
  8
1
  6
CONTINUOUS
 62
     7
 10
21971.63900088685
 20
-8623.153036219815
 30
0.0
 11
21971.63900088685
 21
-8622.0
 31
0.0
  0
LINE
  5
8FE
  8
1
  6
CONTINUOUS
 62
     7
 10
21971.63900088685
 20
-8692.0
 30
0.0
 11
22311.63900088685
 21
-8692.0
 31
0.0
  0
LINE
  5
8FF
  8
1
  6
CONTINUOUS
 62
     7
 10
21966.63900088685
 20
-8777.0
 30
0.0
 11
21996.63900088686
 21
-8777.0
 31
0.0
  0
LINE
  5
900
  8
1
  6
CONTINUOUS
 62
     7
 10
22201.68760159384
 20
-8702.0
 30
0.0
 11
22117.96532700747
 21
-8732.622840498927
 31
0.0
  0
LINE
  5
901
  8
1
  6
CONTINUOUS
 62
     7
 10
22201.68760159384
 20
-8702.0
 30
0.0
 11
21971.63900088685
 21
-8702.0
 31
0.0
  0
LINE
  5
902
  8
1
  6
CONTINUOUS
 62
     7
 10
22117.96532700747
 20
-8732.622840498927
 30
0.0
 11
21996.63900088686
 21
-8777.0
 31
0.0
  0
LINE
  5
903
  8
1
  6
CONTINUOUS
 62
     7
 10
22316.63900088685
 20
-8699.000000000004
 30
0.0
 11
22316.63900088685
 21
-8695.0
 31
0.0
  0
LINE
  5
904
  8
1
  6
CONTINUOUS
 62
     7
 10
22313.63900088685
 20
-8702.0
 30
0.0
 11
22313.63900088685
 21
-8702.000000000004
 31
0.0
  0
LINE
  5
905
  8
1
  6
CONTINUOUS
 62
     7
 10
22313.63900088685
 20
-8702.000000000004
 30
0.0
 11
22337.24560260465
 21
-8702.000000000004
 31
0.0
  0
LINE
  5
906
  8
1
  6
CONTINUOUS
 62
     7
 10
22313.63900088685
 20
-8702.000000000004
 30
0.0
 11
22306.63900088685
 21
-8702.000000000004
 31
0.0
  0
LINE
  5
907
  8
1
  6
CONTINUOUS
 62
     7
 10
22313.63900088685
 20
-8702.000000000004
 30
0.0
 11
22306.63900088685
 21
-8702.000000000004
 31
0.0
  0
LINE
  5
908
  8
1
  6
CONTINUOUS
 62
     7
 10
22316.63900088685
 20
-8712.000000000004
 30
0.0
 11
22316.63900088685
 21
-8718.999999999993
 31
0.0
  0
LINE
  5
909
  8
1
  6
CONTINUOUS
 62
     7
 10
22306.63900088685
 20
-8702.000000000004
 30
0.0
 11
22201.68760159384
 21
-8702.0
 31
0.0
  0
LINE
  5
90A
  8
1
  6
CONTINUOUS
 62
     7
 10
22306.63900088685
 20
-8702.000000000004
 30
0.0
 11
22216.63900088685
 21
-8702.0
 31
0.0
  0
LINE
  5
90B
  8
1
  6
CONTINUOUS
 62
     2
 10
22319.33682766658
 20
-8711.473216553793
 30
0.0
 11
22340.82288517065
 21
-8707.277802859142
 31
0.0
  0
LINE
  5
90C
  8
1
  6
CONTINUOUS
 62
     7
 10
21411.63900088685
 20
-8691.999999999998
 30
0.0
 11
21391.63900088685
 21
-8691.999999999998
 31
0.0
  0
LINE
  5
90D
  8
1
  6
CONTINUOUS
 62
     7
 10
21414.63900088685
 20
-8691.999999999998
 30
0.0
 11
21411.63900088685
 21
-8691.999999999998
 31
0.0
  0
LINE
  5
90E
  8
1
  6
CONTINUOUS
 62
     7
 10
21391.63900088685
 20
-8689.999999999998
 30
0.0
 11
21391.63900088685
 21
-8691.999999999998
 31
0.0
  0
LINE
  5
90F
  8
1
  6
CONTINUOUS
 62
     7
 10
21391.63900088685
 20
-8691.999999999998
 30
0.0
 11
21411.63900088685
 21
-8691.999999999998
 31
0.0
  0
LINE
  5
910
  8
1
  6
CONTINUOUS
 62
     7
 10
21411.63900088685
 20
-8691.999999999998
 30
0.0
 11
21411.63900088685
 21
-8689.999999999998
 31
0.0
  0
LINE
  5
911
  8
1
  6
CONTINUOUS
 62
     7
 10
21411.63900088685
 20
-8689.999999999998
 30
0.0
 11
21391.63900088685
 21
-8689.999999999998
 31
0.0
  0
LINE
  5
912
  8
1
  6
CONTINUOUS
 62
     2
 10
21852.66517092087
 20
-8694.604607368055
 30
0.0
 11
21880.80325943699
 21
-8694.604607368055
 31
0.0
  0
LINE
  5
913
  8
1
  6
CONTINUOUS
 62
     7
 10
21766.63900088685
 20
-8777.0
 30
0.0
 11
21852.3085194901
 21
-8777.0
 31
0.0
  0
LINE
  5
914
  8
1
  6
CONTINUOUS
 62
     7
 10
21854.63900088685
 20
-8722.0
 30
0.0
 11
21878.63900088685
 21
-8722.0
 31
0.0
  0
LINE
  5
915
  8
1
  6
CONTINUOUS
 62
     2
 10
21862.13900088685
 20
-8661.0
 30
0.0
 11
21862.13900088685
 21
-8670.999999999998
 31
0.0
  0
LINE
  5
916
  8
1
  6
CONTINUOUS
 62
     7
 10
21860.63900088685
 20
-8661.0
 30
0.0
 11
21860.63900088685
 21
-8670.999999999998
 31
0.0
  0
LINE
  5
917
  8
1
  6
DOT_CENTER
 62
     2
 10
21866.63900088685
 20
-8737.42810177375
 30
0.0
 11
21866.63900088685
 21
-8661.0
 31
0.0
  0
LINE
  5
918
  8
1
  6
CONTINUOUS
 62
     7
 10
21872.63900088685
 20
-8670.999999999998
 30
0.0
 11
21872.63900088685
 21
-8661.0
 31
0.0
  0
LINE
  5
919
  8
1
  6
CONTINUOUS
 62
     2
 10
21871.13900088685
 20
-8670.999999999998
 30
0.0
 11
21871.13900088685
 21
-8661.0
 31
0.0
  0
LINE
  5
91A
  8
1
  6
CONTINUOUS
 62
     2
 10
21852.63900088685
 20
-8719.0
 30
0.0
 11
21880.95804514491
 21
-8719.0
 31
0.0
  0
LINE
  5
91B
  8
1
  6
CONTINUOUS
 62
     7
 10
21881.63900088685
 20
-8702.0
 30
0.0
 11
21881.63900088685
 21
-8694.999999999998
 31
0.0
  0
LINE
  5
91C
  8
1
  6
CONTINUOUS
 62
     7
 10
21851.63900088685
 20
-8702.0
 30
0.0
 11
21851.63900088685
 21
-8719.0
 31
0.0
  0
LINE
  5
91D
  8
1
  6
DOT_CENTER
 62
     2
 10
21866.63900088685
 20
-8771.0
 30
0.0
 11
21866.63900088685
 21
-8737.42810177375
 31
0.0
  0
LINE
  5
91E
  8
1
  6
DOT_CENTER
 62
     2
 10
21401.63900088685
 20
-8737.42810177375
 30
0.0
 11
21401.63900088685
 21
-8646.0
 31
0.0
  0
LINE
  5
91F
  8
1
  6
CONTINUOUS
 62
     2
 10
21416.45834282736
 20
-8694.999999999998
 30
0.0
 11
21388.63900088685
 21
-8694.999999999998
 31
0.0
  0
LINE
  5
920
  8
1
  6
CONTINUOUS
 62
     7
 10
22386.19620361691
 20
-8794.998995409176
 30
0.0
 11
21356.4121016952
 21
-8794.998995409176
 31
0.0
  0
LINE
  5
921
  8
1
  6
CONTINUOUS
 62
     2
 10
21387.63900088685
 20
-8718.999999999998
 30
0.0
 11
21415.95804514491
 21
-8718.999999999998
 31
0.0
  0
LINE
  5
922
  8
1
  6
CONTINUOUS
 62
     7
 10
21420.63900088685
 20
-8692.0
 30
0.0
 11
21419.6392985693
 21
-8692.0
 31
0.0
  0
LINE
  5
923
  8
1
  6
CONTINUOUS
 62
     7
 10
21419.6392985693
 20
-8692.0
 30
0.0
 11
21414.63900088685
 21
-8692.0
 31
0.0
  0
LINE
  5
924
  8
1
  6
CONTINUOUS
 62
     7
 10
21386.63900088685
 20
-8694.999999999998
 30
0.0
 11
21386.63900088685
 21
-8718.999999999998
 31
0.0
  0
LINE
  5
925
  8
1
  6
CONTINUOUS
 62
     7
 10
21391.63900088685
 20
-8691.999999999998
 30
0.0
 11
21389.63900088685
 21
-8691.999999999998
 31
0.0
  0
LINE
  5
926
  8
1
  6
CONTINUOUS
 62
     7
 10
21389.63900088685
 20
-8721.999999999998
 30
0.0
 11
21413.63900088685
 21
-8721.999999999998
 31
0.0
  0
LINE
  5
927
  8
1
  6
DOT_CENTER
 62
     2
 10
21866.63900088685
 20
-8010.000000000001
 30
0.0
 11
21866.63900088685
 21
-8810.846963780183
 31
0.0
  0
LINE
  5
928
  8
1
  6
LONG_DASHED
 62
     2
 10
21951.63900088685
 20
-8105.000000000001
 30
0.0
 11
21951.63900088685
 21
-8771.0
 31
0.0
  0
LINE
  5
929
  8
1
  6
LONG_DASHED
 62
     2
 10
21781.63900088685
 20
-8025.000000000001
 30
0.0
 11
21781.63900088685
 21
-8771.0
 31
0.0
  0
LINE
  5
92A
  8
1
  6
LONG_DASHED
 62
     2
 10
21776.63900088685
 20
-8617.0
 30
0.0
 11
21776.63900088684
 21
-8771.0
 31
0.0
  0
LINE
  5
92B
  8
1
  6
LONG_DASHED
 62
     2
 10
21781.63900088685
 20
-8771.0
 30
0.0
 11
21776.63900088684
 21
-8771.0
 31
0.0
  0
LINE
  5
92C
  8
1
  6
CONTINUOUS
 62
     7
 10
21776.63900088685
 20
-8549.0
 30
0.0
 11
21776.63900088685
 21
-8617.0
 31
0.0
  0
LINE
  5
92D
  8
1
  6
CONTINUOUS
 62
     7
 10
21956.63900088685
 20
-8549.0
 30
0.0
 11
21956.63900088685
 21
-8617.0
 31
0.0
  0
LINE
  5
92E
  8
1
  6
CONTINUOUS
 62
     7
 10
21766.63900088683
 20
-8089.270105665664
 30
0.0
 11
21766.63900088683
 21
-8015.000000000001
 31
0.0
  0
LINE
  5
92F
  8
1
  6
CONTINUOUS
 62
     7
 10
21966.63900088687
 20
-8095.000000000001
 30
0.0
 11
21966.63900088687
 21
-8089.270105665664
 31
0.0
  0
LINE
  5
930
  8
1
  6
CONTINUOUS
 62
     7
 10
21966.63900088687
 20
-8015.000000000001
 30
0.0
 11
21966.63900088687
 21
-8089.270105665664
 31
0.0
  0
LINE
  5
931
  8
1
  6
LONG_DASHED
 62
     2
 10
21951.63900088685
 20
-8025.000000000001
 30
0.0
 11
21911.63900088686
 21
-8025.000000000001
 31
0.0
  0
LINE
  5
932
  8
1
  6
CONTINUOUS
 62
     7
 10
21866.63900088686
 20
-8005.000000000001
 30
0.0
 11
21911.63900088686
 21
-8005.000000000001
 31
0.0
  0
LINE
  5
933
  8
1
  6
LONG_DASHED
 62
     2
 10
21911.63900088686
 20
-8005.000000000001
 30
0.0
 11
21911.63900088686
 21
-8025.000000000001
 31
0.0
  0
LINE
  5
934
  8
1
  6
CONTINUOUS
 62
     7
 10
21771.63900088686
 20
-8005.000000000001
 30
0.0
 11
21821.63900088686
 21
-8005.000000000001
 31
0.0
  0
LINE
  5
935
  8
1
  6
LONG_DASHED
 62
     2
 10
21821.63900088686
 20
-8005.000000000001
 30
0.0
 11
21821.63900088686
 21
-8022.000000000001
 31
0.0
  0
LINE
  5
936
  8
1
  6
LONG_DASHED
 62
     2
 10
21956.63900088687
 20
-8105.000000000001
 30
0.0
 11
21956.63900088687
 21
-8025.000000000001
 31
0.0
  0
LINE
  5
937
  8
1
  6
CONTINUOUS
 62
     7
 10
21966.63900088687
 20
-8015.000000000001
 30
0.0
 11
21966.63900088686
 21
-8015.000000000001
 31
0.0
  0
LINE
  5
938
  8
1
  6
CONTINUOUS
 62
     7
 10
21766.63900088685
 20
-8089.270105665664
 30
0.0
 11
21766.63900088685
 21
-8095.000000000001
 31
0.0
  0
LINE
  5
939
  8
1
  6
CONTINUOUS
 62
     7
 10
21966.63900088687
 20
-8015.000000000001
 30
0.0
 11
21966.63900088687
 21
-8015.000000000001
 31
0.0
  0
LINE
  5
93A
  8
1
  6
CONTINUOUS
 62
     7
 10
21766.63900088686
 20
-8015.000000000001
 30
0.0
 11
21766.63900088686
 21
-8015.000000000001
 31
0.0
  0
LINE
  5
93B
  8
1
  6
CONTINUOUS
 62
     7
 10
21766.63900088686
 20
-8010.000000000001
 30
0.0
 11
21766.63900088686
 21
-8015.000000000001
 31
0.0
  0
LINE
  5
93C
  8
1
  6
CONTINUOUS
 62
     7
 10
21821.63900088686
 20
-8005.000000000001
 30
0.0
 11
21866.63900088686
 21
-8005.000000000001
 31
0.0
  0
LINE
  5
93D
  8
1
  6
LONG_DASHED
 62
     2
 10
21911.63900088686
 20
-8025.000000000001
 30
0.0
 11
21866.63900088685
 21
-8025.000000000001
 31
0.0
  0
LINE
  5
93E
  8
1
  6
LONG_DASHED
 62
     2
 10
21866.63900088685
 20
-8025.000000000001
 30
0.0
 11
21818.63900088686
 21
-8025.000000000001
 31
0.0
  0
LINE
  5
93F
  8
1
  6
CONTINUOUS
 62
     7
 10
21951.63900088685
 20
-8105.000000000001
 30
0.0
 11
21956.63900088687
 21
-8105.000000000001
 31
0.0
  0
LINE
  5
940
  8
1
  6
LONG_DASHED
 62
     2
 10
21818.63900088686
 20
-8025.000000000001
 30
0.0
 11
21776.63900088685
 21
-8025.000000000001
 31
0.0
  0
LINE
  5
941
  8
1
  6
LONG_DASHED
 62
     2
 10
21951.63900088685
 20
-8025.000000000001
 30
0.0
 11
21951.63900088685
 21
-8105.000000000001
 31
0.0
  0
LINE
  5
942
  8
1
  6
LONG_DASHED
 62
     2
 10
21956.63900088687
 20
-8025.000000000001
 30
0.0
 11
21951.63900088685
 21
-8025.000000000001
 31
0.0
  0
LINE
  5
943
  8
1
  6
CONTINUOUS
 62
     7
 10
21776.63900088685
 20
-8105.000000000001
 30
0.0
 11
21951.63900088685
 21
-8105.000000000001
 31
0.0
  0
LINE
  5
944
  8
1
  6
LONG_DASHED
 62
     2
 10
21776.63900088685
 20
-8025.000000000001
 30
0.0
 11
21776.63900088685
 21
-8105.000000000001
 31
0.0
  0
LINE
  5
945
  8
1
  6
CONTINUOUS
 62
     7
 10
21956.63900088685
 20
-8777.0
 30
0.0
 11
21921.75922749051
 21
-8777.0
 31
0.0
  0
LINE
  5
946
  8
1
  6
CONTINUOUS
 62
     7
 10
21766.63900088685
 20
-8617.0
 30
0.0
 11
21776.63900088685
 21
-8617.0
 31
0.0
  0
LINE
  5
947
  8
1
  6
LONG_DASHED
 62
     2
 10
21776.63900088684
 20
-8771.0
 30
0.0
 11
21776.63900088684
 21
-8777.0
 31
0.0
  0
LINE
  5
948
  8
1
  6
CONTINUOUS
 62
     7
 10
21776.63900088685
 20
-8617.0
 30
0.0
 11
21817.63900088685
 21
-8617.0
 31
0.0
  0
LINE
  5
949
  8
1
  6
CONTINUOUS
 62
     7
 10
21817.63900088685
 20
-8617.0
 30
0.0
 11
21956.63900088685
 21
-8617.0
 31
0.0
  0
LINE
  5
94A
  8
1
  6
CONTINUOUS
 62
     7
 10
21419.63900088685
 20
-8692.0
 30
0.0
 11
21421.63900088685
 21
-8692.0
 31
0.0
  0
LINE
  5
94B
  8
1
  6
CONTINUOUS
 62
     7
 10
21431.63900088685
 20
-8682.0
 30
0.0
 11
21431.63900088685
 21
-8680.636964869083
 31
0.0
  0
LINE
  5
94C
  8
1
  6
CONTINUOUS
 62
     7
 10
21419.63900088685
 20
-8702.000000000004
 30
0.0
 11
21419.63900088685
 21
-8702.0
 31
0.0
  0
LINE
  5
94D
  8
1
  6
CONTINUOUS
 62
     7
 10
21761.63900088685
 20
-8623.153036219815
 30
0.0
 11
21761.63900088685
 21
-8772.0
 31
0.0
  0
LINE
  5
94E
  8
1
  6
CONTINUOUS
 62
     7
 10
21752.85801597851
 20
-8633.078458236349
 30
0.0
 11
21440.1840609819
 21
-8670.743373515435
 31
0.0
  0
LINE
  5
94F
  8
1
  6
CONTINUOUS
 62
     7
 10
21761.63900088685
 20
-8622.0
 30
0.0
 11
21761.63900088685
 21
-8623.153036219815
 31
0.0
  0
LINE
  5
950
  8
1
  6
CONTINUOUS
 62
     7
 10
21421.63900088685
 20
-8692.0
 30
0.0
 11
21761.63900088685
 21
-8692.0
 31
0.0
  0
LINE
  5
951
  8
1
  6
CONTINUOUS
 62
     7
 10
21736.63900088684
 20
-8777.0
 30
0.0
 11
21766.63900088685
 21
-8777.0
 31
0.0
  0
LINE
  5
952
  8
1
  6
CONTINUOUS
 62
     7
 10
21615.31267476623
 20
-8732.622840498927
 30
0.0
 11
21531.59040017986
 21
-8702.0
 31
0.0
  0
LINE
  5
953
  8
1
  6
CONTINUOUS
 62
     7
 10
21761.63900088685
 20
-8702.0
 30
0.0
 11
21531.59040017986
 21
-8702.0
 31
0.0
  0
LINE
  5
954
  8
1
  6
CONTINUOUS
 62
     7
 10
21847.76804151381
 20
-8692.0
 30
0.0
 11
21914.63900088685
 21
-8692.0
 31
0.0
  0
LINE
  5
955
  8
1
  6
CONTINUOUS
 62
     7
 10
21818.63900088685
 20
-8692.0
 30
0.0
 11
21847.76804151381
 21
-8692.0
 31
0.0
  0
LINE
  5
956
  8
1
  6
CONTINUOUS
 62
     7
 10
21815.63900088685
 20
-8699.0
 30
0.0
 11
21815.63900088685
 21
-8695.0
 31
0.0
  0
LINE
  5
957
  8
1
  6
CONTINUOUS
 62
     7
 10
21917.63900088685
 20
-8695.0
 30
0.0
 11
21917.63900088685
 21
-8699.0
 31
0.0
  0
LINE
  5
958
  8
1
  6
CONTINUOUS
 62
     7
 10
21736.63900088684
 20
-8777.0
 30
0.0
 11
21615.31267476623
 21
-8732.622840498927
 31
0.0
  0
LINE
  5
959
  8
1
  6
CONTINUOUS
 62
     7
 10
21416.63900088685
 20
-8695.0
 30
0.0
 11
21416.63900088685
 21
-8699.000000000004
 31
0.0
  0
LINE
  5
95A
  8
1
  6
DOT_CENTER
 62
     2
 10
21401.63900088685
 20
-8771.0
 30
0.0
 11
21401.63900088685
 21
-8737.42810177375
 31
0.0
  0
LINE
  5
95B
  8
1
  6
CONTINUOUS
 62
     7
 10
21419.63900088685
 20
-8702.000000000004
 30
0.0
 11
21419.63900088685
 21
-8702.0
 31
0.0
  0
LINE
  5
95C
  8
1
  6
PHANTOM
 62
     2
 10
21951.63900088685
 20
-8151.850633090329
 30
0.0
 11
21951.63900088685
 21
-8170.0
 31
0.0
  0
LINE
  5
95D
  8
1
  6
PHANTOM
 62
     2
 10
21781.63900088685
 20
-8170.0
 30
0.0
 11
21781.63900088685
 21
-8151.850633090329
 31
0.0
  0
LINE
  5
95E
  8
1
  6
CONTINUOUS
 62
     7
 10
21776.63900088685
 20
-8105.000000000001
 30
0.0
 11
21776.63900088685
 21
-8153.000000000002
 31
0.0
  0
LINE
  5
95F
  8
1
  6
CONTINUOUS
 62
     7
 10
21956.63900088685
 20
-8105.000000000001
 30
0.0
 11
21956.63900088685
 21
-8470.0
 31
0.0
  0
LINE
  5
960
  8
1
  6
LONG_DASHED
 62
     2
 10
21776.63900088685
 20
-8153.000000000002
 30
0.0
 11
21776.63900088685
 21
-8485.0
 31
0.0
  0
LINE
  5
961
  8
1
  6
PHANTOM
 62
     2
 10
21776.63900088685
 20
-8539.0
 30
0.0
 11
21776.63900088685
 21
-8549.0
 31
0.0
  0
LINE
  5
962
  8
1
  6
PHANTOM
 62
     2
 10
21956.63900088685
 20
-8539.0
 30
0.0
 11
21956.63900088685
 21
-8549.0
 31
0.0
  0
LINE
  5
963
  8
1
  6
CONTINUOUS
 62
     7
 10
21956.63900088685
 20
-8470.0
 30
0.0
 11
21956.63900088685
 21
-8539.0
 31
0.0
  0
LINE
  5
964
  8
1
  6
CONTINUOUS
 62
     7
 10
21396.03239916905
 20
-8702.000000000004
 30
0.0
 11
21419.63900088685
 21
-8702.000000000004
 31
0.0
  0
LINE
  5
965
  8
1
  6
CONTINUOUS
 62
     7
 10
21426.63900088685
 20
-8702.000000000004
 30
0.0
 11
21419.63900088685
 21
-8702.000000000004
 31
0.0
  0
LINE
  5
966
  8
1
  6
CONTINUOUS
 62
     7
 10
21426.63900088685
 20
-8702.000000000004
 30
0.0
 11
21419.63900088685
 21
-8702.000000000004
 31
0.0
  0
LINE
  5
967
  8
1
  6
CONTINUOUS
 62
     7
 10
21416.63900088685
 20
-8718.999999999993
 30
0.0
 11
21416.63900088685
 21
-8712.000000000004
 31
0.0
  0
LINE
  5
968
  8
1
  6
CONTINUOUS
 62
     7
 10
21531.59040017986
 20
-8702.0
 30
0.0
 11
21426.63900088685
 21
-8702.000000000004
 31
0.0
  0
LINE
  5
969
  8
1
  6
CONTINUOUS
 62
     7
 10
21516.63900088685
 20
-8702.0
 30
0.0
 11
21426.63900088685
 21
-8702.000000000004
 31
0.0
  0
LINE
  5
96A
  8
1
  6
CONTINUOUS
 62
     2
 10
21392.45511660305
 20
-8707.277802859142
 30
0.0
 11
21413.94117410712
 21
-8711.473216553793
 31
0.0
  0
LINE
  5
96B
  8
1
  6
CONTINUOUS
 62
     7
 10
21851.63900088685
 20
-8702.0
 30
0.0
 11
21818.63900088685
 21
-8702.0
 31
0.0
  0
LINE
  5
96C
  8
1
  6
CONTINUOUS
 62
     7
 10
21851.63900088685
 20
-8694.999999999998
 30
0.0
 11
21851.63900088685
 21
-8702.0
 31
0.0
  0
LINE
  5
96D
  8
1
  6
CONTINUOUS
 62
     7
 10
21881.63900088685
 20
-8702.0
 30
0.0
 11
21914.63900088685
 21
-8702.0
 31
0.0
  0
LINE
  5
96E
  8
1
  6
CONTINUOUS
 62
     7
 10
21881.63900088685
 20
-8719.0
 30
0.0
 11
21881.63900088685
 21
-8702.0
 31
0.0
  0
LINE
  5
96F
  8
1
  6
CONTINUOUS
 62
     2
 10
21862.13900088685
 20
-8656.998995409176
 30
0.0
 11
21862.13900088685
 21
-8670.999999999998
 31
0.0
  0
LINE
  5
970
  8
1
  6
CONTINUOUS
 62
     7
 10
21860.63900088685
 20
-8656.998995409176
 30
0.0
 11
21860.63900088685
 21
-8670.999999999998
 31
0.0
  0
LINE
  5
971
  8
1
  6
CONTINUOUS
 62
     7
 10
21872.63900088685
 20
-8670.999999999998
 30
0.0
 11
21872.63900088685
 21
-8656.998995409176
 31
0.0
  0
LINE
  5
972
  8
1
  6
CONTINUOUS
 62
     2
 10
21871.13900088685
 20
-8670.999999999998
 30
0.0
 11
21871.13900088685
 21
-8656.998995409176
 31
0.0
  0
LINE
  5
973
  8
1
  6
CONTINUOUS
 62
     2
 10
21866.63900088685
 20
-8010.000000000001
 30
0.0
 11
21769.23809873658
 21
-8010.000000000001
 31
0.0
  0
LINE
  5
974
  8
1
  6
DOT_CENTER
 62
     2
 10
21866.63900088685
 20
-7966.549645042202
 30
0.0
 11
21866.63900088685
 21
-8010.000000000001
 31
0.0
  0
LINE
  5
975
  8
1
  6
CONTINUOUS
 62
     2
 10
21964.03990303712
 20
-8010.000000000001
 30
0.0
 11
21866.63900088685
 21
-8010.000000000001
 31
0.0
  0
LINE
  5
976
  8
1
  6
CONTINUOUS
 62
     7
 10
21966.63900088684
 20
-8015.000000000001
 30
0.0
 11
21966.63900088684
 21
-8015.000000000001
 31
0.0
  0
LINE
  5
977
  8
1
  6
CONTINUOUS
 62
     7
 10
21966.63900088684
 20
-8015.000000000001
 30
0.0
 11
21966.63900088684
 21
-8010.000000000001
 31
0.0
  0
LINE
  5
978
  8
1
  6
CONTINUOUS
 62
     7
 10
21911.63900088686
 20
-8005.000000000001
 30
0.0
 11
21961.63900088684
 21
-8005.000000000001
 31
0.0
  0
LINE
  5
979
  8
1
  6
CONTINUOUS
 62
     7
 10
21966.63900088687
 20
-8015.000000000001
 30
0.0
 11
21966.63900088684
 21
-8010.000000000001
 31
0.0
  0
LINE
  5
97A
  8
1
  6
CONTINUOUS
 62
     7
 10
21769.13900088685
 20
-8153.000000000002
 30
0.0
 11
21784.13900088685
 21
-8153.000000000002
 31
0.0
  0
LINE
  5
97B
  8
1
  6
CONTINUOUS
 62
     7
 10
21784.13900088685
 20
-8153.000000000002
 30
0.0
 11
21784.13900088685
 21
-8485.0
 31
0.0
  0
LINE
  5
97C
  8
1
  6
CONTINUOUS
 62
     7
 10
21784.13900088685
 20
-8485.0
 30
0.0
 11
21769.13900088685
 21
-8485.0
 31
0.0
  0
LINE
  5
97D
  8
1
  6
CONTINUOUS
 62
     7
 10
21769.13900088685
 20
-8485.0
 30
0.0
 11
21769.13900088685
 21
-8153.000000000002
 31
0.0
  0
LINE
  5
97E
  8
1
  6
CONTINUOUS
 62
     7
 10
21776.63900088685
 20
-8485.0
 30
0.0
 11
21776.63900088685
 21
-8539.0
 31
0.0
  0
LINE
  5
97F
  8
1
  6
CONTINUOUS
 62
     7
 10
20189.68891821597
 20
-7115.650637600053
 30
0.0
 11
20186.26787949266
 21
-7154.753289137177
 31
0.0
  0
LINE
  5
980
  8
1
  6
CONTINUOUS
 62
     7
 10
20321.58908355773
 20
-7115.650637599945
 30
0.0
 11
20305.63900088685
 21
-6933.340358438476
 31
0.0
  0
LINE
  5
981
  8
1
  6
CONTINUOUS
 62
     7
 10
20250.63900088685
 20
-7140.355175610047
 30
0.0
 11
20250.63900088685
 21
-7246.462711323056
 31
0.0
  0
LINE
  5
982
  8
1
  6
CONTINUOUS
 62
     7
 10
20260.63900088685
 20
-7140.355175610001
 30
0.0
 11
20260.63900088685
 21
-6935.480253832979
 31
0.0
  0
ARC
  5
983
  8
1
  6
CONTINUOUS
 62
     7
 10
19810.63900088685
 20
-8682.0
 30
0.0
 40
10.0
 50
270.0
 51
0.000000000010422
  0
ARC
  5
984
  8
1
  6
CONTINUOUS
 62
     7
 10
20140.63900088685
 20
-8623.153036219815
 30
0.0
 40
9.999999999998401
 50
277.0018568063298
 51
0.000000000010422
  0
ARC
  5
985
  8
1
  6
CONTINUOUS
 62
     7
 10
19815.63900088685
 20
-8712.000000000005
 30
0.0
 40
10.00000000000182
 50
90.0
 51
180.0
  0
ARC
  5
986
  8
1
  6
CONTINUOUS
 62
     2
 10
19785.03239916905
 20
-8707.000000000004
 30
0.0
 40
5.0
 50
90.00000000004168
 51
179.9999999999792
  0
ARC
  5
987
  8
1
  6
CONTINUOUS
 62
     7
 10
20236.76804151381
 20
-8682.0
 30
0.0
 40
10.0
 50
270.0
 51
317.484618036474
  0
ARC
  5
988
  8
1
  6
CONTINUOUS
 62
     7
 10
20050.63900088685
 20
-8190.0
 30
0.0
 40
37.00000000000496
 50
44.99999999999502
 51
179.9999999999958
  0
ARC
  5
989
  8
1
  6
CONTINUOUS
 62
     7
 10
20460.63900088685
 20
-8190.0
 30
0.0
 40
37.0000000000001
 50
324.1752256313414
 51
359.9999999999944
  0
ARC
  5
98A
  8
1
  6
CONTINUOUS
 62
     7
 10
20036.8386747789
 20
-7579.280579940931
 30
0.0
 40
150.0000000000003
 50
42.96038029633512
 51
43.50190043281859
  0
ARC
  5
98B
  8
1
  6
CONTINUOUS
 62
     7
 10
20036.8386747789
 20
-7579.280579940931
 30
0.0
 40
150.0000000000038
 50
51.39742840325543
 51
85.00000000000546
  0
ARC
  5
98C
  8
1
  6
CONTINUOUS
 62
     7
 10
20474.4393269948
 20
-7579.280579940925
 30
0.0
 40
149.9999999999966
 50
137.0396197036664
 51
177.2344393735463
  0
ARC
  5
98D
  8
1
  6
CONTINUOUS
 62
     7
 10
20474.4393269948
 20
-7579.280579940925
 30
0.0
 40
149.9999999999995
 50
128.6025715967472
 51
137.0396197036615
  0
ARC
  5
98E
  8
1
  6
CONTINUOUS
 62
     7
 10
20165.63900088683
 20
-8095.000000000001
 30
0.0
 40
10.0
 50
179.9999999999948
 51
270.0
  0
ARC
  5
98F
  8
1
  6
CONTINUOUS
 62
     7
 10
20345.63900088685
 20
-8095.000000000001
 30
0.0
 40
10.0
 50
270.0
 51
0.0
  0
ARC
  5
990
  8
1
  6
CONTINUOUS
 62
     7
 10
20700.63900088685
 20
-8682.0
 30
0.0
 40
10.0
 50
179.9999999999896
 51
269.9999999999791
  0
ARC
  5
991
  8
1
  6
CONTINUOUS
 62
     7
 10
20370.63900088685
 20
-8623.153036219815
 30
0.0
 40
10.0
 50
179.9999999999896
 51
262.9981431936301
  0
ARC
  5
992
  8
1
  6
CONTINUOUS
 62
     7
 10
20274.50996025989
 20
-8682.0
 30
0.0
 40
9.999999999998986
 50
222.5153819635413
 51
270.0
  0
ARC
  5
993
  8
1
  6
LONG_DASHED
 62
     2
 10
20460.63900088685
 20
-8190.0
 30
0.0
 40
6.0
 50
180.0000000000087
 51
0.000000000008685
  0
ARC
  5
994
  8
1
  6
LONG_DASHED
 62
     2
 10
20460.63900088685
 20
-8173.0
 30
0.0
 40
13.99999999999863
 50
295.3769335251399
 51
359.9999999999963
  0
ARC
  5
995
  8
1
  6
LONG_DASHED
 62
     2
 10
20460.63900088685
 20
-8173.0
 30
0.0
 40
14.0000000000046
 50
167.6263748838119
 51
244.623066474838
  0
ARC
  5
996
  8
1
  6
LONG_DASHED
 62
     2
 10
20050.63900088685
 20
-8190.0
 30
0.0
 40
6.0
 50
179.9999999999913
 51
0.0000000000260551
  0
ARC
  5
997
  8
1
  6
LONG_DASHED
 62
     2
 10
20050.63900088685
 20
-8173.0
 30
0.0
 40
14.0
 50
180.0
 51
244.6230664748482
  0
ARC
  5
998
  8
1
  6
LONG_DASHED
 62
     2
 10
20050.63900088685
 20
-8173.0
 30
0.0
 40
14.0000000000046
 50
167.6263748838156
 51
180.0
  0
ARC
  5
999
  8
1
  6
CONTINUOUS
 62
     7
 10
20255.63900088685
 20
-8059.831385717574
 30
0.0
 40
200.0
 50
270.0
 51
314.9999999999993
  0
ARC
  5
99A
  8
1
  6
CONTINUOUS
 62
     7
 10
20460.63900088685
 20
-8190.0
 30
0.0
 40
37.0
 50
0.0
 51
134.999999999998
  0
ARC
  5
99B
  8
1
  6
CONTINUOUS
 62
     7
 10
20255.63900088685
 20
-8059.831385717574
 30
0.0
 40
200.0000000000029
 50
224.999999999997
 51
269.9999999999959
  0
ARC
  5
99C
  8
1
  6
CONTINUOUS
 62
     7
 10
20050.63900088685
 20
-8190.0
 30
0.0
 40
36.9999999999969
 50
215.8247743686462
 51
225.0
  0
ARC
  5
99D
  8
1
  6
CONTINUOUS
 62
     7
 10
20114.29041708312
 20
-8447.398674241384
 30
0.0
 40
100.0
 50
0.0
 51
44.99999999999853
  0
ARC
  5
99E
  8
1
  6
CONTINUOUS
 62
     7
 10
20036.8386747789
 20
-7579.280579940931
 30
0.0
 40
150.0000000000006
 50
46.49809956717771
 51
51.39742840324956
  0
ARC
  5
99F
  8
1
  6
CONTINUOUS
 62
     7
 10
20036.8386747789
 20
-7579.280579940931
 30
0.0
 40
149.9999999999987
 50
4.999999999999492
 51
42.96038029633684
  0
ARC
  5
9A0
  8
1
  6
CONTINUOUS
 62
     7
 10
20240.63900088685
 20
-7246.462711323056
 30
0.0
 40
10.00000000000859
 50
277.4947174539257
 51
0.000000000005211
  0
ARC
  5
9A1
  8
1
  6
CONTINUOUS
 62
     7
 10
20270.63900088685
 20
-7246.462711323056
 30
0.0
 40
10.0
 50
180.0000000000104
 51
262.5052825460482
  0
ARC
  5
9A2
  8
1
  6
CONTINUOUS
 62
     7
 10
20255.63900088685
 20
-6935.480253832979
 30
0.0
 40
5.0
 50
0.0
 51
90.0
  0
ARC
  5
9A3
  8
1
  6
CONTINUOUS
 62
     7
 10
20316.46596612989
 20
-7262.883735968277
 30
0.0
 40
9.999999999972951
 50
238.0668033412415
 51
315.0000000000848
  0
ARC
  5
9A4
  8
1
  6
CONTINUOUS
 62
     7
 10
20353.23551875073
 20
-7299.653288589703
 30
0.0
 40
9.999999999978536
 50
134.9999999990457
 51
211.9331966578301
  0
ARC
  5
9A5
  8
1
  6
CONTINUOUS
 62
     7
 10
20255.63900088685
 20
-6935.480253832979
 30
0.0
 40
5.0
 50
90.0
 51
180.0000000000104
  0
ARC
  5
9A6
  8
1
  6
CONTINUOUS
 62
     7
 10
20158.04248302215
 20
-7421.307219076019
 30
0.0
 40
9.999999999975321
 50
314.9999999999447
 51
31.93319665880661
  0
ARC
  5
9A7
  8
1
  6
CONTINUOUS
 62
     7
 10
20194.81203564358
 20
-7458.076771696853
 30
0.0
 40
9.999999999970843
 50
58.06680334216448
 51
135.0000000010133
  0
ARC
  5
9A8
  8
1
  6
CONTINUOUS
 62
     7
 10
20474.4393269948
 20
-7141.67992772503
 30
0.0
 40
149.9999999999987
 50
185.0000000000003
 51
223.5019004328217
  0
ARC
  5
9A9
  8
1
  6
CONTINUOUS
 62
     7
 10
20036.8386747789
 20
-7141.679927725032
 30
0.0
 40
149.9999999999948
 50
288.1289485824223
 51
354.999999999992
  0
ARC
  5
9AA
  8
1
  6
CONTINUOUS
 62
     7
 10
20474.4393269948
 20
-7141.679927725032
 30
0.0
 40
150.0000000000019
 50
251.8710514175491
 51
265.000000000003
  0
ARC
  5
9AB
  8
1
  6
CONTINUOUS
 62
     7
 10
20474.4393269948
 20
-7579.280579940925
 30
0.0
 40
149.9999999999982
 50
94.99999999999464
 51
128.6025715967437
  0
ARC
  5
9AC
  8
1
  6
CONTINUOUS
 62
     7
 10
20685.63900088685
 20
-7360.480253832978
 30
0.0
 40
5.0
 50
270.0000000000417
 51
0.0
  0
ARC
  5
9AD
  8
1
  6
CONTINUOUS
 62
     7
 10
20685.63900088685
 20
-7360.480253832978
 30
0.0
 40
5.0
 50
359.9999999999895
 51
90.0
  0
ARC
  5
9AE
  8
1
  6
CONTINUOUS
 62
     7
 10
20255.63900088685
 20
-7785.480253832978
 30
0.0
 40
5.0
 50
180.0000000000208
 51
270.0000000000417
  0
ARC
  5
9AF
  8
1
  6
CONTINUOUS
 62
     7
 10
20255.63900088685
 20
-7785.480253832978
 30
0.0
 40
5.0
 50
270.0
 51
359.9999999999895
  0
ARC
  5
9B0
  8
1
  6
CONTINUOUS
 62
     7
 10
19830.63900088685
 20
-7360.480253832979
 30
0.0
 40
5.0
 50
89.99999999995832
 51
179.9999999999896
  0
ARC
  5
9B1
  8
1
  6
CONTINUOUS
 62
     7
 10
19830.63900088685
 20
-7360.480253832979
 30
0.0
 40
5.0
 50
180.0000000000104
 51
270.0000000000417
  0
ARC
  5
9B2
  8
1
  6
CONTINUOUS
 62
     7
 10
20369.65654339677
 20
-7345.480253832978
 30
0.0
 40
10.00000000000588
 50
187.4947174539329
 51
270.0
  0
ARC
  5
9B3
  8
1
  6
LONG_DASHED
 62
     2
 10
20270.63900088685
 20
-7474.497796342901
 30
0.0
 40
10.00000000000816
 50
97.49471745394908
 51
180.0000000000208
  0
ARC
  5
9B4
  8
1
  6
CONTINUOUS
 62
     7
 10
20141.62145837693
 20
-7375.480253832979
 30
0.0
 40
10.00000000000576
 50
7.494717453938073
 51
90.0
  0
ARC
  5
9B5
  8
1
  6
CONTINUOUS
 62
     7
 10
20369.65654339677
 20
-7375.480253832978
 30
0.0
 40
10.0
 50
90.0
 51
172.505282546072
  0
ARC
  5
9B6
  8
1
  6
LONG_DASHED
 62
     2
 10
20240.63900088685
 20
-7474.497796342901
 30
0.0
 40
10.0
 50
359.9999999999948
 51
82.50528254606684
  0
ARC
  5
9B7
  8
1
  6
CONTINUOUS
 62
     7
 10
20141.62145837693
 20
-7345.480253832979
 30
0.0
 40
9.99999999999909
 50
270.0
 51
352.5052825460668
  0
ARC
  5
9B8
  8
1
  6
CONTINUOUS
 62
     7
 10
20305.68259097497
 20
-7452.056709418489
 30
0.0
 40
9.999999999996042
 50
209.5993389339852
 51
270.0
  0
ARC
  5
9B9
  8
1
  6
CONTINUOUS
 62
     7
 10
20205.59541079873
 20
-7452.056709418489
 30
0.0
 40
10.00000000000091
 50
270.0
 51
330.4006610660296
  0
ARC
  5
9BA
  8
1
  6
LONG_DASHED
 62
     2
 10
20460.63900088685
 20
-8190.0
 30
0.0
 40
36.99999999999596
 50
314.999999999998
 51
324.1752256313528
  0
ARC
  5
9BB
  8
1
  6
CONTINUOUS
 62
     7
 10
20460.63900088685
 20
-8173.0
 30
0.0
 40
14.00000000000105
 50
12.37362511618762
 51
167.626374883816
  0
ARC
  5
9BC
  8
1
  6
LONG_DASHED
 62
     2
 10
20460.63900088685
 20
-8173.0
 30
0.0
 40
14.0
 50
0.0
 51
12.37362511618762
  0
ARC
  5
9BD
  8
1
  6
LONG_DASHED
 62
     2
 10
20050.63900088685
 20
-8173.0
 30
0.0
 40
13.99999999999863
 50
295.3769335251803
 51
12.37362511617715
  0
ARC
  5
9BE
  8
1
  6
CONTINUOUS
 62
     7
 10
20050.63900088685
 20
-8173.0
 30
0.0
 40
14.00000000000105
 50
12.37362511619808
 51
167.6263748838119
  0
ARC
  5
9BF
  8
1
  6
CONTINUOUS
 62
     7
 10
20050.63900088685
 20
-8190.0
 30
0.0
 40
37.0
 50
179.9999999999986
 51
215.8247743686406
  0
ARC
  5
9C0
  8
1
  6
CONTINUOUS
 62
     7
 10
20695.63900088685
 20
-8712.000000000005
 30
0.0
 40
10.0
 50
0.0
 51
89.99999999997915
  0
ARC
  5
9C1
  8
1
  6
CONTINUOUS
 62
     7
 10
20703.13900088685
 20
-7407.980253832979
 30
0.0
 40
2.5
 50
270.0000000000834
 51
359.9999999999791
  0
ARC
  5
9C2
  8
1
  6
CONTINUOUS
 62
     7
 10
20710.63997825518
 20
-7322.196959953849
 30
0.0
 40
5.0
 50
180.0000000000104
 51
225.0000000000221
  0
ARC
  5
9C3
  8
1
  6
LONG_DASHED
 62
     2
 10
20720.63900088685
 20
-7360.480253832979
 30
0.0
 40
15.0
 50
0.000000000003474
 51
45.00000000000246
  0
ARC
  5
9C4
  8
1
  6
LONG_DASHED
 62
     2
 10
20720.63900088685
 20
-7360.480253832979
 30
0.0
 40
14.99999999999996
 50
315.0000000000074
 51
0.000000000010422
  0
ARC
  5
9C5
  8
1
  6
CONTINUOUS
 62
     7
 10
20710.63997825518
 20
-7398.763547712111
 30
0.0
 40
5.000000000000201
 50
134.9999999999853
 51
180.0000000000104
  0
ARC
  5
9C6
  8
1
  6
LONG_DASHED
 62
     2
 10
20720.63900088685
 20
-7360.480253832979
 30
0.0
 40
14.99999999999996
 50
44.9999999999828
 51
315.0000000000024
  0
ARC
  5
9C7
  8
1
  6
CONTINUOUS
 62
     2
 10
20726.24560260465
 20
-8707.000000000004
 30
0.0
 40
5.0
 50
0.0
 51
90.0
  0
ARC
  5
9C8
  8
1
  6
CONTINUOUS
 62
     7
 10
20303.13900088685
 20
-6912.980253832977
 30
0.0
 40
2.5
 50
0.0
 51
90.0
  0
ARC
  5
9C9
  8
1
  6
CONTINUOUS
 62
     7
 10
20217.35570700772
 20
-6905.479276464645
 30
0.0
 40
5.0
 50
269.9999999999583
 51
314.9999999999706
  0
ARC
  5
9CA
  8
1
  6
LONG_DASHED
 62
     2
 10
20255.63900088685
 20
-6895.480253832977
 30
0.0
 40
15.0
 50
89.99999999997222
 51
135.0000000000024
  0
ARC
  5
9CB
  8
1
  6
LONG_DASHED
 62
     2
 10
20255.63900088685
 20
-6895.480253832977
 30
0.0
 40
14.99999999999996
 50
45.00000000000983
 51
90.00000000001388
  0
ARC
  5
9CC
  8
1
  6
CONTINUOUS
 62
     7
 10
20293.92229476598
 20
-6905.479276464645
 30
0.0
 40
5.000000000000201
 50
225.0000000000294
 51
270.0
  0
ARC
  5
9CD
  8
1
  6
LONG_DASHED
 62
     2
 10
20255.63900088685
 20
-6895.480253832977
 30
0.0
 40
15.00000000000253
 50
135.0
 51
44.99999999999755
  0
ARC
  5
9CE
  8
1
  6
CONTINUOUS
 62
     7
 10
19808.13900088685
 20
-7312.980253832978
 30
0.0
 40
2.5
 50
89.99999999991662
 51
180.0000000000208
  0
ARC
  5
9CF
  8
1
  6
CONTINUOUS
 62
     7
 10
19800.63802351851
 20
-7398.763547712108
 30
0.0
 40
5.0
 50
0.0
 51
44.99999999995578
  0
ARC
  5
9D0
  8
1
  6
CONTINUOUS
 62
     7
 10
19790.63900088685
 20
-7360.480253832978
 30
0.0
 40
15.0
 50
180.0000000000035
 51
224.9999999999951
  0
ARC
  5
9D1
  8
1
  6
CONTINUOUS
 62
     7
 10
19790.63900088685
 20
-7360.480253832978
 30
0.0
 40
15.00000000000189
 50
135.0
 51
179.9999999999965
  0
ARC
  5
9D2
  8
1
  6
CONTINUOUS
 62
     7
 10
19800.63802351851
 20
-7322.196959953845
 30
0.0
 40
5.000000000005346
 50
315.0000000000368
 51
0.0
  0
ARC
  5
9D3
  8
1
  6
CONTINUOUS
 62
     7
 10
19790.63900088685
 20
-7360.480253832978
 30
0.0
 40
15.00000000000253
 50
224.9999999999902
 51
135.0000000000098
  0
ARC
  5
9D4
  8
1
  6
CONTINUOUS
 62
     7
 10
20208.13900088685
 20
-7807.980253832981
 30
0.0
 40
2.5
 50
180.0000000000208
 51
270.0000000000834
  0
ARC
  5
9D5
  8
1
  6
CONTINUOUS
 62
     7
 10
20293.92229476598
 20
-7815.481231201313
 30
0.0
 40
5.0
 50
89.99999999995832
 51
134.9999999999558
  0
ARC
  5
9D6
  8
1
  6
LONG_DASHED
 62
     2
 10
20255.63900088685
 20
-7825.480253832981
 30
0.0
 40
15.0
 50
270.0000000000139
 51
315.0000000000098
  0
ARC
  5
9D7
  8
1
  6
LONG_DASHED
 62
     2
 10
20255.63900088685
 20
-7825.480253832981
 30
0.0
 40
15.00000000000189
 50
224.9999999999828
 51
270.0
  0
ARC
  5
9D8
  8
1
  6
CONTINUOUS
 62
     7
 10
20217.35570700772
 20
-7815.481231201313
 30
0.0
 40
5.000000000000844
 50
44.9999999999779
 51
89.99999999995832
  0
ARC
  5
9D9
  8
1
  6
LONG_DASHED
 62
     2
 10
20255.63900088685
 20
-7825.480253832981
 30
0.0
 40
14.99999999999932
 50
315.0000000000049
 51
224.9999999999828
  0
ARC
  5
9DA
  8
1
  6
CONTINUOUS
 62
     7
 10
19790.63900088685
 20
-7360.480253832978
 30
0.0
 40
19.99999999999971
 50
93.5903778907699
 51
266.4096221092295
  0
ARC
  5
9DB
  8
1
  6
CONTINUOUS
 62
     7
 10
20350.63900088684
 20
-8010.000000000001
 30
0.0
 40
5.0
 50
0.000000000010422
 51
90.0
  0
ARC
  5
9DC
  8
1
  6
CONTINUOUS
 62
     7
 10
20160.63900088686
 20
-8010.000000000001
 30
0.0
 40
5.0
 50
89.99999999991662
 51
180.0000000000313
  0
ARC
  5
9DD
  8
1
  6
CONTINUOUS
 62
     7
 10
22311.63900088685
 20
-8682.0
 30
0.0
 40
10.0
 50
180.0
 51
270.0
  0
ARC
  5
9DE
  8
1
  6
CONTINUOUS
 62
     7
 10
21981.63900088685
 20
-8623.153036219815
 30
0.0
 40
10.0
 50
180.0000000000104
 51
262.9981431936326
  0
ARC
  5
9DF
  8
1
  6
CONTINUOUS
 62
     7
 10
22306.63900088685
 20
-8712.000000000005
 30
0.0
 40
10.0
 50
0.0
 51
89.99999999997915
  0
ARC
  5
9E0
  8
1
  6
CONTINUOUS
 62
     2
 10
22337.24560260465
 20
-8707.000000000004
 30
0.0
 40
5.0
 50
0.0
 51
90.0
  0
ARC
  5
9E1
  8
1
  6
CONTINUOUS
 62
     7
 10
21885.50996025989
 20
-8682.0
 30
0.0
 40
10.00000000000144
 50
222.515381963526
 51
270.0
  0
ARC
  5
9E2
  8
1
  6
CONTINUOUS
 62
     7
 10
21956.63900088687
 20
-8095.000000000001
 30
0.0
 40
10.0
 50
270.0000000000209
 51
359.9999999999948
  0
ARC
  5
9E3
  8
1
  6
CONTINUOUS
 62
     7
 10
21776.63900088685
 20
-8095.000000000001
 30
0.0
 40
10.0
 50
180.0
 51
270.0
  0
ARC
  5
9E4
  8
1
  6
CONTINUOUS
 62
     7
 10
21421.63900088685
 20
-8682.0
 30
0.0
 40
10.0
 50
269.9999999999791
 51
0.000000000010422
  0
ARC
  5
9E5
  8
1
  6
CONTINUOUS
 62
     7
 10
21751.63900088685
 20
-8623.153036219815
 30
0.0
 40
9.999999999998401
 50
277.0018568063492
 51
0.0
  0
ARC
  5
9E6
  8
1
  6
CONTINUOUS
 62
     7
 10
21847.76804151381
 20
-8682.0
 30
0.0
 40
10.0
 50
270.0
 51
317.4846180364958
  0
ARC
  5
9E7
  8
1
  6
CONTINUOUS
 62
     7
 10
21426.63900088685
 20
-8712.000000000005
 30
0.0
 40
10.00000000000182
 50
90.0
 51
179.9999999999896
  0
ARC
  5
9E8
  8
1
  6
CONTINUOUS
 62
     2
 10
21396.03239916905
 20
-8707.000000000004
 30
0.0
 40
5.0
 50
90.00000000004168
 51
180.0
  0
ARC
  5
9E9
  8
1
  6
CONTINUOUS
 62
     7
 10
21771.63900088686
 20
-8010.000000000001
 30
0.0
 40
5.0
 50
89.99999999995832
 51
180.0
  0
ARC
  5
9EA
  8
1
  6
CONTINUOUS
 62
     7
 10
21961.63900088684
 20
-8010.000000000001
 30
0.0
 40
5.0
 50
0.000000000010422
 51
90.0
  0
ARC
  5
9EB
  8
1
  6
CONTINUOUS
 62
     7
 10
20036.8386747789
 20
-7141.679927725032
 30
0.0
 40
149.999999999998
 50
272.7655606264613
 51
288.128948582434
  0
ARC
  5
9EC
  8
1
  6
CONTINUOUS
 62
     7
 10
20474.4393269948
 20
-7141.679927725032
 30
0.0
 40
149.9999999999986
 50
226.4980995671764
 51
251.8710514175415
  0
CIRCLE
  5
9ED
  8
1
  6
CONTINUOUS
 62
     2
 10
20720.63900088685
 20
-7360.480253832979
 30
0.0
 40
5.0
  0
CIRCLE
  5
9EE
  8
1
  6
CONTINUOUS
 62
     2
 10
20720.63900088685
 20
-7360.480253832979
 30
0.0
 40
6.0
  0
CIRCLE
  5
9EF
  8
1
  6
LONG_DASHED
 62
     2
 10
20460.63900088685
 20
-8190.0
 30
0.0
 40
31.0
  0
CIRCLE
  5
9F0
  8
1
  6
CONTINUOUS
 62
     7
 10
20255.63900088685
 20
-8279.831385717574
 30
0.0
 40
5.0
  0
CIRCLE
  5
9F1
  8
1
  6
LONG_DASHED
 62
     2
 10
20050.63900088685
 20
-8190.0
 30
0.0
 40
31.0
  0
CIRCLE
  5
9F2
  8
1
  6
CONTINUOUS
 62
     7
 10
20255.63900088685
 20
-7360.480253832979
 30
0.0
 40
104.9999999994194
  0
CIRCLE
  5
9F3
  8
1
  6
CONTINUOUS
 62
     2
 10
20310.63900088685
 20
-7360.480253832979
 30
0.0
 40
2.25
  0
CIRCLE
  5
9F4
  8
1
  6
CONTINUOUS
 62
     2
 10
20310.63900088685
 20
-7360.480253832979
 30
0.0
 40
3.0
  0
CIRCLE
  5
9F5
  8
1
  6
CONTINUOUS
 62
     7
 10
20302.30804844516
 20
-7313.811206274666
 30
0.0
 40
2.99999999999922
  0
CIRCLE
  5
9F6
  8
1
  6
CONTINUOUS
 62
     7
 10
20302.30804844516
 20
-7313.811206274666
 30
0.0
 40
4.000000000001961
  0
CIRCLE
  5
9F7
  8
1
  6
CONTINUOUS
 62
     2
 10
20208.96995332854
 20
-7313.811206274668
 30
0.0
 40
2.99999999999922
  0
CIRCLE
  5
9F8
  8
1
  6
CONTINUOUS
 62
     2
 10
20208.96995332854
 20
-7313.811206274668
 30
0.0
 40
4.000000000000675
  0
CIRCLE
  5
9F9
  8
1
  6
CONTINUOUS
 62
     2
 10
20208.96995332854
 20
-7407.149301391292
 30
0.0
 40
2.99999999999922
  0
CIRCLE
  5
9FA
  8
1
  6
CONTINUOUS
 62
     2
 10
20208.96995332854
 20
-7407.149301391292
 30
0.0
 40
4.000000000000032
  0
CIRCLE
  5
9FB
  8
1
  6
CONTINUOUS
 62
     2
 10
20302.30804844516
 20
-7407.149301391291
 30
0.0
 40
2.99999999999922
  0
CIRCLE
  5
9FC
  8
1
  6
CONTINUOUS
 62
     2
 10
20302.30804844516
 20
-7407.149301391291
 30
0.0
 40
4.000000000003248
  0
CIRCLE
  5
9FD
  8
1
  6
LONG_DASHED
 62
     2
 10
20255.63900088685
 20
-7360.480253832979
 30
0.0
 40
90.0
  0
CIRCLE
  5
9FE
  8
1
  6
CONTINUOUS
 62
     7
 10
20255.63900088685
 20
-7360.480253832979
 30
0.0
 40
45.0
  0
CIRCLE
  5
9FF
  8
1
  6
CONTINUOUS
 62
     7
 10
20255.63900088685
 20
-7360.480253832979
 30
0.0
 40
99.99999999999272
  0
CIRCLE
  5
A00
  8
1
  6
CONTINUOUS
 62
     2
 10
20255.63900088685
 20
-7415.480253832981
 30
0.0
 40
2.25
  0
CIRCLE
  5
A01
  8
1
  6
CONTINUOUS
 62
     2
 10
20255.63900088685
 20
-7415.480253832981
 30
0.0
 40
3.0
  0
CIRCLE
  5
A02
  8
1
  6
CONTINUOUS
 62
     2
 10
20200.63900088685
 20
-7360.480253832981
 30
0.0
 40
2.25
  0
CIRCLE
  5
A03
  8
1
  6
CONTINUOUS
 62
     2
 10
20200.63900088685
 20
-7360.480253832981
 30
0.0
 40
3.0
  0
CIRCLE
  5
A04
  8
1
  6
CONTINUOUS
 62
     2
 10
20255.63900088685
 20
-7305.480253832979
 30
0.0
 40
2.25
  0
CIRCLE
  5
A05
  8
1
  6
CONTINUOUS
 62
     2
 10
20255.63900088685
 20
-7305.480253832979
 30
0.0
 40
3.0
  0
CIRCLE
  5
A06
  8
1
  6
CONTINUOUS
 62
     2
 10
20255.63900088685
 20
-6895.480253832977
 30
0.0
 40
5.0
  0
CIRCLE
  5
A07
  8
1
  6
CONTINUOUS
 62
     2
 10
20255.63900088685
 20
-6895.480253832977
 30
0.0
 40
6.0
  0
CIRCLE
  5
A08
  8
1
  6
CONTINUOUS
 62
     2
 10
19790.63900088685
 20
-7360.480253832978
 30
0.0
 40
5.0
  0
CIRCLE
  5
A09
  8
1
  6
CONTINUOUS
 62
     2
 10
19790.63900088685
 20
-7360.480253832978
 30
0.0
 40
6.0
  0
CIRCLE
  5
A0A
  8
1
  6
CONTINUOUS
 62
     2
 10
20255.63900088685
 20
-7825.480253832981
 30
0.0
 40
5.0
  0
CIRCLE
  5
A0B
  8
1
  6
CONTINUOUS
 62
     2
 10
20255.63900088685
 20
-7825.480253832981
 30
0.0
 40
6.0
  0
CIRCLE
  5
A0C
  8
1
  6
CONTINUOUS
 62
     7
 10
20255.63900088685
 20
-8459.831385717574
 30
0.0
 40
5.0
  0
ARC
  5
A0D
  8
1
  6
CONTINUOUS
 62
     7
 10
19778.63900088685
 20
-8694.999999999998
 30
0.0
 40
3.0
 50
90.0
 51
180.0
  0
ARC
  5
A0E
  8
1
  6
CONTINUOUS
 62
     7
 10
19778.63900088685
 20
-8718.999999999998
 30
0.0
 40
3.0
 50
180.0000000000347
 51
270.0
  0
ARC
  5
A0F
  8
1
  6
CONTINUOUS
 62
     7
 10
19802.63900088685
 20
-8718.999999999998
 30
0.0
 40
3.0
 50
270.0000000000695
 51
0.0000000001042204
  0
ARC
  5
A10
  8
1
  6
CONTINUOUS
 62
     7
 10
19830.63900088685
 20
-8680.636964869083
 30
0.0
 40
9.999999999999677
 50
98.36588612406565
 51
180.0000000000104
  0
ARC
  5
A11
  8
1
  6
CONTINUOUS
 62
     7
 10
20155.63900088685
 20
-8622.0
 30
0.0
 40
5.0
 50
89.99999999995832
 51
180.0000000000208
  0
ARC
  5
A12
  8
1
  6
CONTINUOUS
 62
     7
 10
20155.63900088685
 20
-8772.0
 30
0.0
 40
5.0
 50
180.0000000000208
 51
270.0
  0
ARC
  5
A13
  8
1
  6
CONTINUOUS
 62
     7
 10
19808.63900088685
 20
-8695.0
 30
0.0
 40
3.0
 50
90.0
 51
180.0
  0
ARC
  5
A14
  8
1
  6
CONTINUOUS
 62
     7
 10
19808.63900088685
 20
-8699.000000000004
 30
0.0
 40
3.0
 50
180.0
 51
270.0
  0
ARC
  5
A15
  8
1
  6
CONTINUOUS
 62
     7
 10
20243.63900088685
 20
-8694.999999999998
 30
0.0
 40
3.0
 50
90.0
 51
179.9999999999653
  0
ARC
  5
A16
  8
1
  6
CONTINUOUS
 62
     7
 10
20267.63900088685
 20
-8694.999999999998
 30
0.0
 40
3.0
 50
0.0
 51
90.0
  0
ARC
  5
A17
  8
1
  6
CONTINUOUS
 62
     7
 10
20267.63900088685
 20
-8719.0
 30
0.0
 40
3.0
 50
270.0000000000695
 51
359.9999999999652
  0
ARC
  5
A18
  8
1
  6
CONTINUOUS
 62
     7
 10
20243.63900088685
 20
-8719.0
 30
0.0
 40
3.0
 50
179.9999999999653
 51
269.9999999999305
  0
ARC
  5
A19
  8
1
  6
CONTINUOUS
 62
     7
 10
20732.63900088685
 20
-8694.999999999998
 30
0.0
 40
3.0
 50
0.0
 51
90.0
  0
ARC
  5
A1A
  8
1
  6
CONTINUOUS
 62
     7
 10
20732.63900088685
 20
-8718.999999999998
 30
0.0
 40
3.0
 50
269.9999999999305
 51
0.0
  0
ARC
  5
A1B
  8
1
  6
CONTINUOUS
 62
     7
 10
20708.63900088685
 20
-8718.999999999998
 30
0.0
 40
3.0
 50
179.9999999999653
 51
270.0
  0
ARC
  5
A1C
  8
1
  6
LONG_DASHED
 62
     2
 10
20303.63900088684
 20
-8022.000000000001
 30
0.0
 40
3.0
 50
180.0000000000174
 51
270.0
  0
ARC
  5
A1D
  8
1
  6
CONTINUOUS
 62
     7
 10
20680.63900088685
 20
-8680.636964869083
 30
0.0
 40
10.0
 50
0.0
 51
81.63411387595649
  0
ARC
  5
A1E
  8
1
  6
CONTINUOUS
 62
     7
 10
20355.63900088685
 20
-8622.0
 30
0.0
 40
5.0
 50
0.0
 51
90.0
  0
ARC
  5
A1F
  8
1
  6
CONTINUOUS
 62
     7
 10
20355.63900088685
 20
-8772.0
 30
0.0
 40
5.0
 50
270.0000000000417
 51
0.0
  0
ARC
  5
A20
  8
1
  6
CONTINUOUS
 62
     7
 10
20702.63900088685
 20
-8695.0
 30
0.0
 40
3.0
 50
0.0
 51
90.0
  0
ARC
  5
A21
  8
1
  6
CONTINUOUS
 62
     7
 10
20207.63900088685
 20
-8699.0
 30
0.0
 40
3.0
 50
179.9999999999653
 51
270.0
  0
ARC
  5
A22
  8
1
  6
CONTINUOUS
 62
     7
 10
20303.63900088685
 20
-8695.0
 30
0.0
 40
3.0
 50
0.0
 51
90.0
  0
ARC
  5
A23
  8
1
  6
CONTINUOUS
 62
     7
 10
20207.63900088685
 20
-8695.0
 30
0.0
 40
3.0
 50
90.0
 51
179.9999999999653
  0
ARC
  5
A24
  8
1
  6
CONTINUOUS
 62
     7
 10
20303.63900088685
 20
-8699.0
 30
0.0
 40
3.0
 50
269.9999999999305
 51
0.0000000000347401
  0
ARC
  5
A25
  8
1
  6
CONTINUOUS
 62
     7
 10
20702.63900088685
 20
-8699.000000000004
 30
0.0
 40
3.0
 50
269.9999999999305
 51
0.0000000000347401
  0
ARC
  5
A26
  8
1
  6
CONTINUOUS
 62
     7
 10
20396.98758469057
 20
-8447.398674241387
 30
0.0
 40
99.99999999999888
 50
135.0000000000088
 51
180.0000000000084
  0
ARC
  5
A27
  8
1
  6
CONTINUOUS
 62
     7
 10
20286.98758469057
 20
-8475.0
 30
0.0
 40
10.0
 50
270.0
 51
0.0
  0
ARC
  5
A28
  8
1
  6
CONTINUOUS
 62
     7
 10
20224.29041708312
 20
-8475.0
 30
0.0
 40
10.0
 50
179.9999999999896
 51
270.0
  0
ARC
  5
A29
  8
1
  6
CONTINUOUS
 62
     7
 10
20147.81746020171
 20
-7473.958648767612
 30
0.0
 40
2.999999999994075
 50
134.9999999998772
 51
223.5019004328582
  0
ARC
  5
A2A
  8
1
  6
CONTINUOUS
 62
     7
 10
20147.45166336531
 20
-7453.111242168421
 30
0.0
 40
5.00000000000406
 50
134.9999999999189
 51
224.9999999999779
  0
ARC
  5
A2B
  8
1
  6
LONG_DASHED
 62
     2
 10
20163.00801255147
 20
-7468.667591354351
 30
0.0
 40
5.000000000000844
 50
225.0000000009212
 51
315.0000000008549
  0
ARC
  5
A2C
  8
1
  6
CONTINUOUS
 62
     7
 10
20142.16060595222
 20
-7468.301794518122
 30
0.0
 40
2.999999999996929
 50
226.4980995671398
 51
315.0
  0
ARC
  5
A2D
  8
1
  6
CONTINUOUS
 62
     7
 10
20147.81746020171
 20
-7473.958648767612
 30
0.0
 40
2.999999999994075
 50
134.9999999998772
 51
223.5019004328582
  0
ARC
  5
A2E
  8
1
  6
CONTINUOUS
 62
     7
 10
20348.26998922229
 20
-7252.292916311439
 30
0.0
 40
4.999999999995699
 50
45.00000000004422
 51
135.0000000000737
  0
ARC
  5
A2F
  8
1
  6
CONTINUOUS
 62
     7
 10
20363.82633840822
 20
-7267.849265497598
 30
0.0
 40
5.00000000000406
 50
314.9999999990788
 51
44.99999999909355
  0
ARC
  5
A30
  8
1
  6
CONTINUOUS
 62
     7
 10
20363.46054157199
 20
-7247.001858898351
 30
0.0
 40
3.000000000001793
 50
315.0000000000246
 51
43.50190043283817
  0
ARC
  5
A31
  8
1
  6
CONTINUOUS
 62
     7
 10
20369.11739582148
 20
-7252.658713147843
 30
0.0
 40
3.000000000002732
 50
46.49809956722354
 51
135.0000000000123
  0
ARC
  5
A32
  8
1
  6
LONG_DASHED
 62
     2
 10
20489.63900088685
 20
-7466.056709418489
 30
0.0
 40
2.0
 50
270.0
 51
0.0000000000260551
  0
ARC
  5
A33
  8
1
  6
LONG_DASHED
 62
     2
 10
20493.63900088685
 20
-7464.05670941849
 30
0.0
 40
2.0
 50
89.99999999989578
 51
180.0
  0
ARC
  5
A34
  8
1
  6
CONTINUOUS
 62
     7
 10
20495.63900088685
 20
-7464.056709418489
 30
0.0
 40
2.0
 50
0.0
 51
90.0
  0
ARC
  5
A35
  8
1
  6
CONTINUOUS
 62
     7
 10
20495.63900088685
 20
-7475.056709418488
 30
0.0
 40
2.000000000000909
 50
270.0
 51
0.0000000000260551
  0
ARC
  5
A36
  8
1
  6
LONG_DASHED
 62
     2
 10
20431.63900088685
 20
-7466.056709418489
 30
0.0
 40
2.0
 50
180.0000000000521
 51
270.0000000001043
  0
ARC
  5
A37
  8
1
  6
LONG_DASHED
 62
     2
 10
20427.63900088685
 20
-7464.05670941849
 30
0.0
 40
2.0
 50
359.999999999974
 51
90.0
  0
ARC
  5
A38
  8
1
  6
LONG_DASHED
 62
     2
 10
20021.63900088685
 20
-7466.056709418489
 30
0.0
 40
2.0
 50
180.0000000000261
 51
270.0
  0
ARC
  5
A39
  8
1
  6
LONG_DASHED
 62
     2
 10
20017.63900088685
 20
-7464.05670941849
 30
0.0
 40
2.0
 50
0.0000000000260551
 51
90.0
  0
ARC
  5
A3A
  8
1
  6
CONTINUOUS
 62
     7
 10
20015.63900088685
 20
-7464.056709418489
 30
0.0
 40
1.999999999999091
 50
90.0
 51
179.9999999999739
  0
ARC
  5
A3B
  8
1
  6
LONG_DASHED
 62
     2
 10
20079.63900088685
 20
-7466.056709418489
 30
0.0
 40
2.0
 50
270.0
 51
0.0
  0
ARC
  5
A3C
  8
1
  6
LONG_DASHED
 62
     2
 10
20083.63900088685
 20
-7464.05670941849
 30
0.0
 40
2.0
 50
89.99999999989578
 51
180.0
  0
ARC
  5
A3D
  8
1
  6
CONTINUOUS
 62
     7
 10
20015.63900088685
 20
-7475.056709418488
 30
0.0
 40
2.0
 50
180.0000000000261
 51
270.0
  0
ARC
  5
A3E
  8
1
  6
PHANTOM
 62
     2
 10
20220.63900088685
 20
-8161.004560711399
 30
0.0
 40
20.0
 50
89.99999999998958
 51
180.0000000000026
  0
ARC
  5
A3F
  8
1
  6
PHANTOM
 62
     2
 10
20290.63900088685
 20
-8161.004560711399
 30
0.0
 40
20.0
 50
0.0
 51
90.0
  0
ARC
  5
A40
  8
1
  6
CONTINUOUS
 62
     7
 10
20700.63997825518
 20
-7315.480253832978
 30
0.0
 40
5.0
 50
0.0
 51
90.0
  0
ARC
  5
A41
  8
1
  6
CONTINUOUS
 62
     7
 10
20210.63900088685
 20
-6915.479276464645
 30
0.0
 40
5.0
 50
89.99999999995832
 51
180.0
  0
ARC
  5
A42
  8
1
  6
CONTINUOUS
 62
     7
 10
19810.63802351851
 20
-7405.480253832979
 30
0.0
 40
5.0
 50
180.0
 51
270.0000000000417
  0
ARC
  5
A43
  8
1
  6
CONTINUOUS
 62
     7
 10
20300.63900088685
 20
-7805.481231201313
 30
0.0
 40
5.0
 50
270.0
 51
0.0
  0
ARC
  5
A44
  8
1
  6
CONTINUOUS
 62
     7
 10
22343.63900088685
 20
-8694.999999999998
 30
0.0
 40
3.0
 50
0.0000000000347401
 51
90.0
  0
ARC
  5
A45
  8
1
  6
CONTINUOUS
 62
     7
 10
22343.63900088685
 20
-8718.999999999998
 30
0.0
 40
3.0
 50
270.0
 51
0.0
  0
ARC
  5
A46
  8
1
  6
CONTINUOUS
 62
     7
 10
22319.63900088685
 20
-8718.999999999998
 30
0.0
 40
3.0
 50
180.0
 51
270.0000000000695
  0
ARC
  5
A47
  8
1
  6
CONTINUOUS
 62
     7
 10
22291.63900088685
 20
-8680.636964869083
 30
0.0
 40
10.0
 50
0.0
 51
81.63411387595649
  0
ARC
  5
A48
  8
1
  6
CONTINUOUS
 62
     7
 10
21966.63900088685
 20
-8622.0
 30
0.0
 40
5.0
 50
0.0
 51
90.0
  0
ARC
  5
A49
  8
1
  6
CONTINUOUS
 62
     7
 10
21966.63900088685
 20
-8772.0
 30
0.0
 40
5.0
 50
270.0
 51
359.9999999999791
  0
ARC
  5
A4A
  8
1
  6
CONTINUOUS
 62
     7
 10
22313.63900088685
 20
-8695.0
 30
0.0
 40
3.0
 50
0.0
 51
90.0
  0
ARC
  5
A4B
  8
1
  6
CONTINUOUS
 62
     7
 10
22313.63900088685
 20
-8699.000000000004
 30
0.0
 40
3.0
 50
270.0
 51
359.9999999999652
  0
ARC
  5
A4C
  8
1
  6
CONTINUOUS
 62
     7
 10
21878.63900088685
 20
-8694.999999999998
 30
0.0
 40
3.0
 50
0.0
 51
90.0
  0
ARC
  5
A4D
  8
1
  6
CONTINUOUS
 62
     7
 10
21854.63900088685
 20
-8694.999999999998
 30
0.0
 40
3.0
 50
90.0
 51
179.9999999999653
  0
ARC
  5
A4E
  8
1
  6
CONTINUOUS
 62
     7
 10
21854.63900088685
 20
-8719.0
 30
0.0
 40
3.0
 50
180.0000000000347
 51
270.0000000000695
  0
ARC
  5
A4F
  8
1
  6
CONTINUOUS
 62
     7
 10
21878.63900088685
 20
-8719.0
 30
0.0
 40
3.0
 50
270.0
 51
359.9999999999652
  0
ARC
  5
A50
  8
1
  6
CONTINUOUS
 62
     7
 10
21389.63900088685
 20
-8694.999999999998
 30
0.0
 40
3.0
 50
90.0
 51
180.0
  0
ARC
  5
A51
  8
1
  6
CONTINUOUS
 62
     7
 10
21389.63900088685
 20
-8718.999999999998
 30
0.0
 40
3.0
 50
180.0
 51
270.0
  0
ARC
  5
A52
  8
1
  6
CONTINUOUS
 62
     7
 10
21413.63900088685
 20
-8718.999999999998
 30
0.0
 40
3.0
 50
269.9999999999305
 51
0.0000000001042204
  0
ARC
  5
A53
  8
1
  6
LONG_DASHED
 62
     2
 10
21818.63900088686
 20
-8022.000000000001
 30
0.0
 40
3.0
 50
270.0000000000695
 51
0.0
  0
ARC
  5
A54
  8
1
  6
CONTINUOUS
 62
     7
 10
21441.63900088685
 20
-8680.636964869083
 30
0.0
 40
9.999999999999677
 50
98.36588612402288
 51
180.0
  0
ARC
  5
A55
  8
1
  6
CONTINUOUS
 62
     7
 10
21766.63900088685
 20
-8622.0
 30
0.0
 40
5.0
 50
90.0
 51
180.0
  0
ARC
  5
A56
  8
1
  6
CONTINUOUS
 62
     7
 10
21766.63900088685
 20
-8772.0
 30
0.0
 40
5.0
 50
180.0000000000208
 51
270.0
  0
ARC
  5
A57
  8
1
  6
CONTINUOUS
 62
     7
 10
21419.63900088685
 20
-8695.0
 30
0.0
 40
3.0
 50
90.00000000006949
 51
180.0
  0
ARC
  5
A58
  8
1
  6
CONTINUOUS
 62
     7
 10
21914.63900088685
 20
-8699.0
 30
0.0
 40
3.0
 50
270.0
 51
0.0
  0
ARC
  5
A59
  8
1
  6
CONTINUOUS
 62
     7
 10
21818.63900088685
 20
-8695.0
 30
0.0
 40
3.0
 50
90.00000000006949
 51
179.9999999999653
  0
ARC
  5
A5A
  8
1
  6
CONTINUOUS
 62
     7
 10
21914.63900088685
 20
-8695.0
 30
0.0
 40
3.0
 50
0.0
 51
90.0
  0
ARC
  5
A5B
  8
1
  6
CONTINUOUS
 62
     7
 10
21818.63900088685
 20
-8699.0
 30
0.0
 40
3.0
 50
180.0000000000347
 51
270.0000000000695
  0
ARC
  5
A5C
  8
1
  6
CONTINUOUS
 62
     7
 10
21419.63900088685
 20
-8699.000000000004
 30
0.0
 40
3.0
 50
180.0
 51
270.0
  0
VIEWPORT
  5
A5F
 67
     1
  8
0
 10
0.0
 20
0.0
 30
0.0
 40
300.0
 41
220.0
 68
     1
 69
     1
1001
ACAD
1000
MVIEW
1002
{
1070
    16
1010
0.0
1020
0.0
1030
0.0
1010
0.0
1020
0.0
1030
1.0
1040
0.0
1040
1.0
1040
0.0
1040
0.0
1040
50.0
1040
0.0
1040
0.0
1070
     0
1070
   100
1070
     0
1070
     3
1070
     0
1070
     0
1070
     0
1070
     0
1040
0.0
1040
0.0
1040
0.0
1040
0.5
1040
0.5
1040
0.0
1040
0.0
1070
     0
1002
{
1002
}
1002
}
  0
ENDSEC
  0
EOF
