  0
SECTION
  2
HEADER
  9
$ACADVER
  1
AC1009
  9
$DWGCODEPAGE
  3
ansi_932
  9
$INSBASE
 10
0.0
 20
0.0
 30
0.0
  9
$EXTMIN
 10
3641.228355337244
 20
3921.871492985973
 30
0.0
  9
$EXTMAX
 10
5800.198051533954
 20
5849.999999999956
 30
0.0
  9
$LIMMIN
 10
0.0
 20
0.0
  9
$LIMMAX
 10
12.0
 20
9.0
  9
$ORTHOMODE
 70
     0
  9
$REGENMODE
 70
     1
  9
$FILLMODE
 70
     1
  9
$QTEXTMODE
 70
     0
  9
$MIRRTEXT
 70
     1
  9
$DRAGMODE
 70
     2
  9
$LTSCALE
 40
1.0
  9
$OSMODE
 70
    37
  9
$ATTMODE
 70
     1
  9
$TEXTSIZE
 40
0.2
  9
$TRACEWID
 40
0.05
  9
$TEXTSTYLE
  7
STANDARD
  9
$CLAYER
  8
0
  9
$CELTYPE
  6
BYLAYER
  9
$CECOLOR
 62
   256
  9
$DIMSCALE
 40
1.0
  9
$DIMASZ
 40
0.18
  9
$DIMEXO
 40
0.0625
  9
$DIMDLI
 40
0.38
  9
$DIMRND
 40
0.0
  9
$DIMDLE
 40
0.0
  9
$DIMEXE
 40
0.18
  9
$DIMTP
 40
0.0
  9
$DIMTM
 40
0.0
  9
$DIMTXT
 40
0.18
  9
$DIMCEN
 40
0.09
  9
$DIMTSZ
 40
0.0
  9
$DIMTOL
 70
     0
  9
$DIMLIM
 70
     0
  9
$DIMTIH
 70
     1
  9
$DIMTOH
 70
     1
  9
$DIMSE1
 70
     0
  9
$DIMSE2
 70
     0
  9
$DIMTAD
 70
     0
  9
$DIMZIN
 70
     0
  9
$DIMBLK
  1

  9
$DIMASO
 70
     1
  9
$DIMSHO
 70
     1
  9
$DIMPOST
  1

  9
$DIMAPOST
  1

  9
$DIMALT
 70
     0
  9
$DIMALTD
 70
     2
  9
$DIMALTF
 40
25.4
  9
$DIMLFAC
 40
1.0
  9
$DIMTOFL
 70
     0
  9
$DIMTVP
 40
0.0
  9
$DIMTIX
 70
     0
  9
$DIMSOXD
 70
     0
  9
$DIMSAH
 70
     0
  9
$DIMBLK1
  1

  9
$DIMBLK2
  1

  9
$DIMSTYLE
  2
STANDARD
  9
$DIMCLRD
 70
     0
  9
$DIMCLRE
 70
     0
  9
$DIMCLRT
 70
     0
  9
$DIMTFAC
 40
1.0
  9
$DIMGAP
 40
0.09
  9
$LUNITS
 70
     2
  9
$LUPREC
 70
     4
  9
$SKETCHINC
 40
0.1
  9
$FILLETRAD
 40
0.5
  9
$AUNITS
 70
     0
  9
$AUPREC
 70
     0
  9
$MENU
  1
.
  9
$ELEVATION
 40
0.0
  9
$PELEVATION
 40
0.0
  9
$THICKNESS
 40
0.0
  9
$LIMCHECK
 70
     0
  9
$CHAMFERA
 40
0.5
  9
$CHAMFERB
 40
0.5
  9
$SKPOLY
 70
     0
  9
$TDCREATE
 40
2457987.335106516
  9
$TDUPDATE
 40
2457987.335106528
  9
$TDINDWG
 40
0.0000000116
  9
$TDUSRTIMER
 40
0.0000000116
  9
$USRTIMER
 70
     1
  9
$ANGBASE
 50
0.0
  9
$ANGDIR
 70
     0
  9
$PDMODE
 70
     0
  9
$PDSIZE
 40
0.0
  9
$PLINEWID
 40
0.0
  9
$COORDS
 70
     1
  9
$SPLFRAME
 70
     0
  9
$SPLINETYPE
 70
     6
  9
$SPLINESEGS
 70
     8
  9
$ATTDIA
 70
     0
  9
$ATTREQ
 70
     1
  9
$HANDLING
 70
     1
  9
$HANDSEED
  5
2C7
  9
$SURFTAB1
 70
     6
  9
$SURFTAB2
 70
     6
  9
$SURFTYPE
 70
     6
  9
$SURFU
 70
     6
  9
$SURFV
 70
     6
  9
$UCSNAME
  2

  9
$UCSORG
 10
0.0
 20
0.0
 30
0.0
  9
$UCSXDIR
 10
1.0
 20
0.0
 30
0.0
  9
$UCSYDIR
 10
0.0
 20
1.0
 30
0.0
  9
$PUCSNAME
  2

  9
$PUCSORG
 10
0.0
 20
0.0
 30
0.0
  9
$PUCSXDIR
 10
1.0
 20
0.0
 30
0.0
  9
$PUCSYDIR
 10
0.0
 20
1.0
 30
0.0
  9
$USERI1
 70
     0
  9
$USERI2
 70
     0
  9
$USERI3
 70
     0
  9
$USERI4
 70
     0
  9
$USERI5
 70
     0
  9
$USERR1
 40
17.0
  9
$USERR2
 40
0.0
  9
$USERR3
 40
0.0
  9
$USERR4
 40
0.0
  9
$USERR5
 40
0.0
  9
$WORLDVIEW
 70
     1
  9
$SHADEDGE
 70
     3
  9
$SHADEDIF
 70
    70
  9
$TILEMODE
 70
     1
  9
$MAXACTVP
 70
    64
  9
$PLIMCHECK
 70
     0
  9
$PEXTMIN
 10
1.00000000000000E+20
 20
1.00000000000000E+20
 30
1.00000000000000E+20
  9
$PEXTMAX
 10
-1.00000000000000E+20
 20
-1.00000000000000E+20
 30
-1.00000000000000E+20
  9
$PLIMMIN
 10
0.0
 20
0.0
  9
$PLIMMAX
 10
12.0
 20
9.0
  9
$UNITMODE
 70
     0
  9
$VISRETAIN
 70
     1
  9
$PLINEGEN
 70
     0
  9
$PSLTSCALE
 70
     1
  0
ENDSEC
  0
SECTION
  2
TABLES
  0
TABLE
  2
VPORT
 70
     1
  0
VPORT
  2
*ACTIVE
 70
     0
 10
0.0
 20
0.0
 11
1.0
 21
1.0
 12
4720.713203435599
 22
4885.935746492964
 13
0.0
 23
0.0
 14
0.5
 24
0.5
 15
0.5
 25
0.5
 16
0.0
 26
0.0
 36
1.0
 17
0.0
 27
0.0
 37
0.0
 40
2120.941357715382
 41
1.60267857142857
 42
50.0
 43
0.0
 44
0.0
 50
0.0
 51
0.0
 71
     0
 72
   100
 73
     1
 74
     3
 75
     0
 76
     0
 77
     0
 78
     0
  0
ENDTAB
  0
TABLE
  2
LTYPE
 70
     8
  0
LTYPE
  2
CONTINUOUS
 70
     0
  3
Solid line
 72
    65
 73
     0
 40
0.0
  0
LTYPE
  2
DASHED
 70
     0
  3
Dashed
 72
    65
 73
     2
 40
15.0
 49
7.0
 49
-8.0
  0
LTYPE
  2
DOTTED
 70
     0
  3
Dotted
 72
    65
 73
     2
 40
1.0
 49
0.0
 49
-1.0
  0
LTYPE
  2
DOT_CENTER
 70
     0
  3
Dot_Center
 72
    65
 73
     4
 40
14.0
 49
12.0
 49
-1.0
 49
0.0
 49
-1.0
  0
LTYPE
  2
LONG_DASHED
 70
     0
  3
Long_Dashed
 72
    65
 73
     2
 40
15.0
 49
10.0
 49
-5.0
  0
LTYPE
  2
DASH_CENTER
 70
     0
  3
Dash_Center
 72
    65
 73
     4
 40
14.0
 49
11.0
 49
-1.0
 49
1.0
 49
-1.0
  0
LTYPE
  2
PHANTOM
 70
     0
  3
Phantom
 72
    65
 73
     6
 40
13.0
 49
10.0
 49
-1.0
 49
0.0
 49
-1.0
 49
0.0
 49
-1.0
  0
LTYPE
  2
CENTER_DASH_DASH
 70
     0
  3
Center_Dash_Dash
 72
    65
 73
     6
 40
14.0
 49
9.0
 49
-1.0
 49
1.0
 49
-1.0
 49
1.0
 49
-1.0
  0
ENDTAB
  0
TABLE
  2
LAYER
 70
     2
  0
LAYER
  2
0
 70
     0
 62
     7
  6
CONTINUOUS
  0
LAYER
  2
1
 70
     0
 62
     7
  6
CONTINUOUS
  0
ENDTAB
  0
TABLE
  2
STYLE
 70
     1
  0
STYLE
  2
STANDARD
 70
     0
 40
0.0
 41
1.0
 50
0.0
 71
     0
 42
0.2
  3
txt
  4

  0
ENDTAB
  0
TABLE
  2
VIEW
 70
     0
  0
ENDTAB
  0
TABLE
  2
UCS
 70
     0
  0
ENDTAB
  0
TABLE
  2
APPID
 70
     1
  0
APPID
  2
ACAD
 70
     0
  0
ENDTAB
  0
TABLE
  2
DIMSTYLE
 70
     1
  0
DIMSTYLE
  2
STANDARD
 70
     0
  3

  4

  5

  6

  7

 40
1.0
 41
0.18
 42
0.0625
 43
0.38
 44
0.18
 45
0.0
 46
0.0
 47
0.0
 48
0.0
140
0.18
141
0.09
142
0.0
143
25.4
144
1.0
145
0.0
146
1.0
147
0.09
 71
     0
 72
     0
 73
     1
 74
     1
 75
     0
 76
     0
 77
     0
 78
     0
170
     0
171
     2
172
     0
173
     0
174
     0
175
     0
176
     0
177
     0
178
     0
  0
ENDTAB
  0
ENDSEC
  0
SECTION
  2
BLOCKS
  0
BLOCK
  8
0
  2
$MODEL_SPACE
 70
     0
 10
0.0
 20
0.0
 30
0.0
  3
$MODEL_SPACE
  1

  0
ENDBLK
  5
21
  8
0
  0
BLOCK
 67
     1
  8
0
  2
$PAPER_SPACE
 70
     0
 10
0.0
 20
0.0
 30
0.0
  3
$PAPER_SPACE
  1

  0
ENDBLK
  5
1D
 67
     1
  8
0
  0
ENDSEC
  0
SECTION
  2
ENTITIES
  0
POINT
  5
47
  8
1
 62
   250
 10
5706.999999999985
 20
5333.99999999998
 30
0.0
  0
LINE
  5
48
  8
1
  6
CONTINUOUS
 62
     7
 10
5662.000000000005
 20
5079.055947214019
 30
0.0
 11
5662.000000000001
 21
5069.000000000002
 31
0.0
  0
LINE
  5
49
  8
1
  6
CONTINUOUS
 62
     7
 10
5662.000000000005
 20
5079.055947214019
 30
0.0
 11
5662.000000000001
 21
5069.000000000002
 31
0.0
  0
LINE
  5
4A
  8
1
  6
CONTINUOUS
 62
     7
 10
5662.000000000005
 20
5079.055947214019
 30
0.0
 11
5662.000000000001
 21
5069.000000000002
 31
0.0
  0
LINE
  5
4B
  8
1
  6
CONTINUOUS
 62
     7
 10
4979.995047826647
 20
4737.140131969696
 30
0.0
 11
4979.995047826647
 21
4693.999999999985
 31
0.0
  0
LINE
  5
4C
  8
1
  6
CONTINUOUS
 62
     7
 10
4201.995047826647
 20
4736.863786139525
 30
0.0
 11
4201.995047826647
 21
4693.999999999982
 31
0.0
  0
LINE
  5
4D
  8
1
  6
CONTINUOUS
 62
     7
 10
4419.228355337275
 20
4684.000000000004
 30
0.0
 11
4419.228355337275
 21
4649.000000000002
 31
0.0
  0
LINE
  5
4E
  8
1
  6
CONTINUOUS
 62
     7
 10
3749.61824102569
 20
4905.291865201161
 30
0.0
 11
3749.61824102569
 21
5005.291865201161
 31
0.0
  0
LINE
  5
4F
  8
1
  6
CONTINUOUS
 62
     7
 10
4144.381758974325
 20
4905.291865201161
 30
0.0
 11
4144.381758974325
 21
5005.291865201161
 31
0.0
  0
LINE
  5
50
  8
1
  6
CONTINUOUS
 62
     7
 10
3666.242640687149
 20
4688.999999999982
 30
0.0
 11
3646.251236126034
 21
4688.999999999998
 31
0.0
  0
LINE
  5
51
  8
1
  6
CONTINUOUS
 62
     7
 10
3687.004952173367
 20
4688.999999999982
 30
0.0
 11
3666.242640687149
 21
4688.999999999982
 31
0.0
  0
LINE
  5
52
  8
1
  6
CONTINUOUS
 62
     2
 10
3697.455594310059
 20
4684.0
 30
0.0
 11
3641.251236126034
 21
4684.0
 31
0.0
  0
LINE
  5
53
  8
1
  6
CONTINUOUS
 62
     7
 10
3687.230000000007
 20
4684.0
 30
0.0
 11
3697.455594310059
 21
4684.0
 31
0.0
  0
LINE
  5
54
  8
1
  6
CONTINUOUS
 62
     2
 10
3702.455594310059
 20
4693.999999999982
 30
0.0
 11
3692.004952173367
 21
4693.999999999982
 31
0.0
  0
LINE
  5
55
  8
1
  6
CONTINUOUS
 62
     7
 10
3687.230000000007
 20
4688.999999999982
 30
0.0
 11
3697.455594310059
 21
4688.999999999982
 31
0.0
  0
LINE
  5
56
  8
1
  6
CONTINUOUS
 62
     7
 10
3702.455594310059
 20
4693.999999999982
 30
0.0
 11
3702.455594310047
 21
4751.294655978461
 31
0.0
  0
LINE
  5
57
  8
1
  6
CONTINUOUS
 62
     7
 10
3692.004952173367
 20
4693.999999999982
 30
0.0
 11
3692.004952173367
 21
4736.863786139515
 31
0.0
  0
LINE
  5
58
  8
1
  6
LONG_DASHED
 62
     2
 10
3946.181119603403
 20
5168.999999999998
 30
0.0
 11
3897.000000000007
 21
5168.999999999998
 31
0.0
  0
LINE
  5
59
  8
1
  6
CONTINUOUS
 62
     7
 10
3947.000000000007
 20
5198.999999999998
 30
0.0
 11
4166.332034355972
 21
5198.999999999998
 31
0.0
  0
LINE
  5
5A
  8
1
  6
CONTINUOUS
 62
     7
 10
4196.544405689956
 20
4684.0
 30
0.0
 11
4206.770000000008
 21
4684.0
 31
0.0
  0
LINE
  5
5B
  8
1
  6
CONTINUOUS
 62
     2
 10
4252.74876387398
 20
4684.0
 30
0.0
 11
4196.544405689956
 21
4684.0
 31
0.0
  0
LINE
  5
5C
  8
1
  6
CONTINUOUS
 62
     2
 10
4201.995047826647
 20
4693.999999999982
 30
0.0
 11
4191.544405689956
 21
4693.999999999982
 31
0.0
  0
LINE
  5
5D
  8
1
  6
CONTINUOUS
 62
     7
 10
4196.544405689956
 20
4688.999999999982
 30
0.0
 11
4206.770000000008
 21
4688.999999999982
 31
0.0
  0
LINE
  5
5E
  8
1
  6
CONTINUOUS
 62
     7
 10
4191.544405689956
 20
4752.833628358366
 30
0.0
 11
4191.544405689956
 21
4693.999999999982
 31
0.0
  0
LINE
  5
5F
  8
1
  6
CONTINUOUS
 62
     7
 10
4252.771644662756
 20
4683.999999999982
 30
0.0
 11
4252.77164466276
 21
4683.999999999982
 31
0.0
  0
LINE
  5
60
  8
1
  6
CONTINUOUS
 62
     7
 10
4252.771644662756
 20
4686.508708150437
 30
0.0
 11
4252.771644662756
 21
4683.999999999982
 31
0.0
  0
LINE
  5
61
  8
1
  6
LONG_DASHED
 62
     2
 10
3787.000000000007
 20
5118.999999999998
 30
0.0
 11
3787.000000000007
 21
4905.291865201161
 31
0.0
  0
LINE
  5
62
  8
1
  6
CONTINUOUS
 62
     7
 10
3641.228355337258
 20
4684.0
 30
0.0
 11
3641.228355337253
 21
4648.999999999998
 31
0.0
  0
LINE
  5
63
  8
1
  6
CONTINUOUS
 62
     7
 10
4189.427859928172
 20
5168.999999999998
 30
0.0
 11
4189.427859928172
 21
5198.999999999998
 31
0.0
  0
LINE
  5
64
  8
1
  6
CONTINUOUS
 62
     7
 10
3704.572140071843
 20
5198.999999999998
 30
0.0
 11
3704.572140071843
 21
5168.999999999998
 31
0.0
  0
LINE
  5
65
  8
1
  6
CONTINUOUS
 62
     7
 10
4151.93203435597
 20
5198.999999999998
 30
0.0
 11
4189.427859928172
 21
5198.999999999998
 31
0.0
  0
LINE
  5
66
  8
1
  6
CONTINUOUS
 62
     7
 10
4142.33203435597
 20
5198.999999999998
 30
0.0
 11
4151.93203435597
 21
5198.999999999998
 31
0.0
  0
LINE
  5
67
  8
1
  6
CONTINUOUS
 62
     7
 10
3704.572140071843
 20
5198.999999999998
 30
0.0
 11
3742.067965644044
 21
5198.999999999998
 31
0.0
  0
LINE
  5
68
  8
1
  6
LONG_DASHED
 62
     2
 10
3787.000000000007
 20
4905.291865201161
 30
0.0
 11
3787.000000000007
 21
4648.999999999998
 31
0.0
  0
LINE
  5
69
  8
1
  6
LONG_DASHED
 62
     2
 10
3897.000000000007
 20
5168.999999999998
 30
0.0
 11
3842.000000000007
 21
5168.999999999998
 31
0.0
  0
LINE
  5
6A
  8
1
  6
LONG_DASHED
 62
     2
 10
3992.000000000007
 20
5173.999999999998
 30
0.0
 11
3992.000000000007
 21
5198.999999999998
 31
0.0
  0
LINE
  5
6B
  8
1
  6
LONG_DASHED
 62
     2
 10
4057.000000000007
 20
5168.999999999998
 30
0.0
 11
3997.000000000007
 21
5168.999999999998
 31
0.0
  0
LINE
  5
6C
  8
1
  6
LONG_DASHED
 62
     2
 10
4107.000000000007
 20
4648.999999999998
 30
0.0
 11
4107.000000000007
 21
5118.999999999998
 31
0.0
  0
LINE
  5
6D
  8
1
  6
LONG_DASHED
 62
     2
 10
3997.000000000007
 20
5168.999999999998
 30
0.0
 11
3946.181119603403
 21
5168.999999999998
 31
0.0
  0
LINE
  5
6E
  8
1
  6
CONTINUOUS
 62
     7
 10
3742.067965644044
 20
5198.999999999998
 30
0.0
 11
3751.667965644043
 21
5198.999999999998
 31
0.0
  0
LINE
  5
6F
  8
1
  6
CONTINUOUS
 62
     7
 10
4166.332034355972
 20
5198.999999999998
 30
0.0
 11
4173.93203435597
 21
5198.999999999998
 31
0.0
  0
LINE
  5
70
  8
1
  6
CONTINUOUS
 62
     7
 10
4173.93203435597
 20
5198.999999999998
 30
0.0
 11
4174.972966856458
 21
5198.999999999998
 31
0.0
  0
LINE
  5
71
  8
1
  6
CONTINUOUS
 62
     7
 10
3751.667965644043
 20
5198.999999999998
 30
0.0
 11
3902.000000000007
 21
5198.999999999998
 31
0.0
  0
LINE
  5
72
  8
1
  6
LONG_DASHED
 62
     2
 10
3902.000000000007
 20
5198.999999999998
 30
0.0
 11
3902.000000000007
 21
5173.999999999998
 31
0.0
  0
LINE
  5
73
  8
1
  6
CONTINUOUS
 62
     7
 10
3902.000000000007
 20
5198.999999999998
 30
0.0
 11
3947.000000000007
 21
5198.999999999998
 31
0.0
  0
LINE
  5
74
  8
1
  6
CONTINUOUS
 62
     7
 10
4247.74876387398
 20
4688.999999999998
 30
0.0
 11
4227.757359312865
 21
4688.999999999982
 31
0.0
  0
LINE
  5
75
  8
1
  6
CONTINUOUS
 62
     7
 10
4247.74876387398
 20
4688.999999999998
 30
0.0
 11
4237.77164466276
 21
4688.999999999982
 31
0.0
  0
LINE
  5
76
  8
1
  6
CONTINUOUS
 62
     7
 10
4252.771644662762
 20
4648.999999999998
 30
0.0
 11
4252.771644662756
 21
4683.999999999982
 31
0.0
  0
LINE
  5
77
  8
1
  6
DOT_CENTER
 62
     2
 10
3947.000000000007
 20
5258.582164328654
 30
0.0
 11
3947.000000000007
 21
4609.659318637273
 31
0.0
  0
LINE
  5
78
  8
1
  6
CONTINUOUS
 62
     7
 10
4227.757359312865
 20
4688.999999999982
 30
0.0
 11
4206.995047826647
 21
4688.999999999982
 31
0.0
  0
LINE
  5
79
  8
1
  6
LONG_DASHED
 62
     2
 10
4724.181119603403
 20
5069.000000000002
 30
0.0
 11
4675.000000000007
 21
5069.000000000002
 31
0.0
  0
LINE
  5
7A
  8
1
  6
CONTINUOUS
 62
     7
 10
4725.000000000007
 20
5099.000000000002
 30
0.0
 11
4944.332034355972
 21
5099.000000000002
 31
0.0
  0
LINE
  5
7B
  8
1
  6
CONTINUOUS
 62
     2
 10
4974.544405689956
 20
4684.000000000004
 30
0.0
 11
4984.770000000008
 21
4684.000000000004
 31
0.0
  0
LINE
  5
7C
  8
1
  6
CONTINUOUS
 62
     2
 10
5030.748763873989
 20
4684.000000000004
 30
0.0
 11
4974.544405689956
 21
4684.000000000004
 31
0.0
  0
LINE
  5
7D
  8
1
  6
CONTINUOUS
 62
     7
 10
4979.270388988741
 20
4688.999999999985
 30
0.0
 11
4984.770000000008
 21
4688.999999999985
 31
0.0
  0
LINE
  5
7E
  8
1
  6
LONG_DASHED
 62
     2
 10
4565.000000000007
 20
5019.000000000002
 30
0.0
 11
4565.000000000007
 21
4649.000000000002
 31
0.0
  0
LINE
  5
7F
  8
1
  6
LONG_DASHED
 62
     2
 10
4885.000000000007
 20
5019.000000000002
 30
0.0
 11
4885.000000000007
 21
4649.000000000002
 31
0.0
  0
LINE
  5
80
  8
1
  6
CONTINUOUS
 62
     7
 10
4967.427859928172
 20
5069.000000000002
 30
0.0
 11
4967.427859928172
 21
5099.000000000002
 31
0.0
  0
LINE
  5
81
  8
1
  6
CONTINUOUS
 62
     7
 10
4482.572140071843
 20
5099.000000000002
 30
0.0
 11
4482.572140071843
 21
5069.000000000002
 31
0.0
  0
LINE
  5
82
  8
1
  6
CONTINUOUS
 62
     7
 10
4929.93203435597
 20
5099.000000000002
 30
0.0
 11
4967.427859928172
 21
5099.000000000002
 31
0.0
  0
LINE
  5
83
  8
1
  6
CONTINUOUS
 62
     7
 10
4920.33203435597
 20
5099.000000000002
 30
0.0
 11
4929.93203435597
 21
5099.000000000002
 31
0.0
  0
LINE
  5
84
  8
1
  6
CONTINUOUS
 62
     7
 10
4482.572140071843
 20
5099.000000000002
 30
0.0
 11
4520.067965644044
 21
5099.000000000002
 31
0.0
  0
LINE
  5
85
  8
1
  6
LONG_DASHED
 62
     2
 10
4675.000000000007
 20
5069.000000000002
 30
0.0
 11
4620.000000000007
 21
5069.000000000002
 31
0.0
  0
LINE
  5
86
  8
1
  6
LONG_DASHED
 62
     2
 10
4770.000000000007
 20
5074.000000000002
 30
0.0
 11
4770.000000000007
 21
5099.000000000002
 31
0.0
  0
LINE
  5
87
  8
1
  6
LONG_DASHED
 62
     2
 10
4835.000000000007
 20
5069.000000000002
 30
0.0
 11
4775.000000000007
 21
5069.000000000002
 31
0.0
  0
LINE
  5
88
  8
1
  6
LONG_DASHED
 62
     2
 10
4775.000000000007
 20
5069.000000000002
 30
0.0
 11
4724.181119603403
 21
5069.000000000002
 31
0.0
  0
LINE
  5
89
  8
1
  6
CONTINUOUS
 62
     7
 10
4520.067965644044
 20
5099.000000000002
 30
0.0
 11
4529.667965644043
 21
5099.000000000002
 31
0.0
  0
LINE
  5
8A
  8
1
  6
CONTINUOUS
 62
     7
 10
4944.332034355972
 20
5099.000000000002
 30
0.0
 11
4951.93203435597
 21
5099.000000000002
 31
0.0
  0
LINE
  5
8B
  8
1
  6
CONTINUOUS
 62
     7
 10
4951.93203435597
 20
5099.000000000002
 30
0.0
 11
4952.972966856458
 21
5099.000000000002
 31
0.0
  0
LINE
  5
8C
  8
1
  6
CONTINUOUS
 62
     7
 10
4529.667965644043
 20
5099.000000000002
 30
0.0
 11
4680.000000000007
 21
5099.000000000002
 31
0.0
  0
LINE
  5
8D
  8
1
  6
LONG_DASHED
 62
     2
 10
4680.000000000007
 20
5099.000000000002
 30
0.0
 11
4680.000000000007
 21
5074.000000000002
 31
0.0
  0
LINE
  5
8E
  8
1
  6
CONTINUOUS
 62
     7
 10
4680.000000000007
 20
5099.000000000002
 30
0.0
 11
4725.000000000007
 21
5099.000000000002
 31
0.0
  0
LINE
  5
8F
  8
1
  6
CONTINUOUS
 62
     7
 10
5025.748763873988
 20
4689.000000000002
 30
0.0
 11
5011.270000000008
 21
4688.99999999999
 31
0.0
  0
LINE
  5
90
  8
1
  6
CONTINUOUS
 62
     7
 10
5025.748763873988
 20
4689.000000000002
 30
0.0
 11
5022.771644662768
 21
4688.999999999985
 31
0.0
  0
LINE
  5
91
  8
1
  6
CONTINUOUS
 62
     7
 10
5030.77164466277
 20
4649.000000000002
 30
0.0
 11
5030.771644662765
 21
4683.999999999985
 31
0.0
  0
LINE
  5
92
  8
1
  6
CONTINUOUS
 62
     7
 10
4725.000000000004
 20
4649.000000000003
 30
0.0
 11
4809.852813742399
 21
4649.000000000003
 31
0.0
  0
LINE
  5
93
  8
1
  6
CONTINUOUS
 62
     7
 10
4990.771644662762
 20
4649.000000000002
 30
0.0
 11
5005.757359312865
 21
4649.000000000002
 31
0.0
  0
LINE
  5
94
  8
1
  6
CONTINUOUS
 62
     7
 10
5005.757359312865
 20
4649.000000000002
 30
0.0
 11
5011.270000000008
 21
4649.000000000002
 31
0.0
  0
LINE
  5
95
  8
1
  6
CONTINUOUS
 62
     7
 10
5005.757359312865
 20
4688.999999999985
 30
0.0
 11
4990.270000000008
 21
4688.999999999985
 31
0.0
  0
LINE
  5
96
  8
1
  6
DOT_CENTER
 62
     2
 10
5220.934300478202
 20
4175.000000000001
 30
0.0
 11
5482.000000000006
 21
4175.000000000015
 31
0.0
  0
LINE
  5
97
  8
1
  6
CONTINUOUS
 62
     7
 10
5707.000000000007
 20
4375.000000000001
 30
0.0
 11
5707.000000000007
 21
4295.838015129135
 31
0.0
  0
LINE
  5
98
  8
1
  6
CONTINUOUS
 62
     7
 10
5657.000000000007
 20
4400.000000000001
 30
0.0
 11
5682.000000000007
 21
4400.000000000002
 31
0.0
  0
LINE
  5
99
  8
1
  6
CONTINUOUS
 62
     7
 10
5657.000000000007
 20
4400.000000000001
 30
0.0
 11
5682.000000000007
 21
4400.000000000002
 31
0.0
  0
LINE
  5
9A
  8
1
  6
CONTINUOUS
 62
     7
 10
5607.000000000007
 20
4400.000000000001
 30
0.0
 11
5657.000000000007
 21
4400.000000000001
 31
0.0
  0
LINE
  5
9B
  8
1
  6
CONTINUOUS
 62
     7
 10
5607.000000000007
 20
4400.000000000001
 30
0.0
 11
5657.000000000007
 21
4400.000000000001
 31
0.0
  0
LINE
  5
9C
  8
1
  6
CONTINUOUS
 62
     7
 10
5257.000000000006
 20
4345.0
 30
0.0
 11
5257.000000000007
 21
4370.0
 31
0.0
  0
LINE
  5
9D
  8
1
  6
DOT_CENTER
 62
     2
 10
5482.000000000007
 20
3921.871492985973
 30
0.0
 11
5482.000000000007
 21
4494.239228456914
 31
0.0
  0
LINE
  5
9E
  8
1
  6
CONTINUOUS
 62
     7
 10
5287.000000000007
 20
4400.000000000002
 30
0.0
 11
5361.1619848709
 21
4400.000000000001
 31
0.0
  0
LINE
  5
9F
  8
1
  6
CONTINUOUS
 62
     7
 10
5677.000000000007
 20
3950.000000000001
 30
0.0
 11
5602.838015129168
 21
3950.000000000029
 31
0.0
  0
LINE
  5
A0
  8
1
  6
CONTINUOUS
 62
     7
 10
5257.000000000007
 20
3980.000000000001
 30
0.0
 11
5257.000000000047
 21
4054.161984870812
 31
0.0
  0
LINE
  5
A1
  8
1
  6
CONTINUOUS
 62
     7
 10
5256.99999999996
 20
4299.999999999919
 30
0.0
 11
5257.000000000047
 21
4300.0
 31
0.0
  0
LINE
  5
A2
  8
1
  6
CONTINUOUS
 62
     7
 10
5357.000000000062
 20
3949.999999999969
 30
0.0
 11
5357.000000000007
 21
3950.000000000029
 31
0.0
  0
LINE
  5
A3
  8
1
  6
CONTINUOUS
 62
     7
 10
5707.000000000022
 20
4050.000000000028
 30
0.0
 11
5707.000000000007
 21
4050.000000000001
 31
0.0
  0
LINE
  5
A4
  8
1
  6
CONTINUOUS
 62
     7
 10
5257.000000000006
 20
4300.0
 30
0.0
 11
5257.000000000047
 21
4300.0
 31
0.0
  0
LINE
  5
A5
  8
1
  6
CONTINUOUS
 62
     7
 10
5357.000000000007
 20
3950.0
 30
0.0
 11
5357.000000000007
 21
3950.000000000029
 31
0.0
  0
LINE
  5
A6
  8
1
  6
CONTINUOUS
 62
     7
 10
5616.843943470914
 20
4456.999999999997
 30
0.0
 11
5616.843943470914
 21
4457.000000000001
 31
0.0
  0
LINE
  5
A7
  8
1
  6
CONTINUOUS
 62
     7
 10
5616.843943470914
 20
4457.000000000001
 30
0.0
 11
5616.843943470914
 21
4456.999999999997
 31
0.0
  0
LINE
  5
A8
  8
1
  6
CONTINUOUS
 62
     7
 10
5622.084421501597
 20
4456.999999999997
 30
0.0
 11
5622.084421501597
 21
4457.000000000001
 31
0.0
  0
LINE
  5
A9
  8
1
  6
CONTINUOUS
 62
     7
 10
5622.084421501597
 20
4457.000000000001
 30
0.0
 11
5622.084421501597
 21
4456.999999999997
 31
0.0
  0
LINE
  5
AA
  8
1
  6
CONTINUOUS
 62
     7
 10
5602.838015129168
 20
3950.000000000029
 30
0.0
 11
5357.000000000007
 21
3950.000000000029
 31
0.0
  0
LINE
  5
AB
  8
1
  6
CONTINUOUS
 62
     7
 10
5357.000000000007
 20
3950.000000000029
 30
0.0
 11
5287.000000000007
 21
3950.000000000001
 31
0.0
  0
LINE
  5
AC
  8
1
  6
CONTINUOUS
 62
     7
 10
5361.1619848709
 20
4400.000000000001
 30
0.0
 11
5576.500000000006
 21
4400.000000000001
 31
0.0
  0
LINE
  5
AD
  8
1
  6
CONTINUOUS
 62
     7
 10
5707.000000000007
 20
4050.000000000001
 30
0.0
 11
5707.000000000007
 21
4269.500000000009
 31
0.0
  0
LINE
  5
AE
  8
1
  6
CONTINUOUS
 62
     7
 10
5707.000000000007
 20
4295.838015129135
 30
0.0
 11
5706.999999999993
 21
4295.838015129135
 31
0.0
  0
LINE
  5
AF
  8
1
  6
CONTINUOUS
 62
     7
 10
5707.000000000007
 20
4050.000000000001
 30
0.0
 11
5707.000000000007
 21
3980.000000000001
 31
0.0
  0
LINE
  5
B0
  8
1
  6
CONTINUOUS
 62
     7
 10
5257.000000000047
 20
4054.161984870812
 30
0.0
 11
5257.000000000047
 21
4300.0
 31
0.0
  0
LINE
  5
B1
  8
1
  6
CONTINUOUS
 62
     7
 10
5257.000000000047
 20
4300.0
 30
0.0
 11
5257.000000000006
 21
4345.0
 31
0.0
  0
LINE
  5
B2
  8
1
  6
CONTINUOUS
 62
     7
 10
5662.000000000006
 20
4917.610167684933
 30
0.0
 11
5662.000000000006
 21
4776.993586411567
 31
0.0
  0
LINE
  5
B3
  8
1
  6
LONG_DASHED
 62
     2
 10
5322.000000000007
 20
4649.000000000002
 30
0.0
 11
5322.000000000007
 21
5019.000000000002
 31
0.0
  0
LINE
  5
B4
  8
1
  6
LONG_DASHED
 62
     2
 10
5642.000000000007
 20
4649.000000000002
 30
0.0
 11
5642.000000000007
 21
5019.000000000002
 31
0.0
  0
LINE
  5
B5
  8
1
  6
LONG_DASHED
 62
     2
 10
5592.000000000007
 20
5069.000000000002
 30
0.0
 11
5532.000000000007
 21
5069.000000000002
 31
0.0
  0
LINE
  5
B6
  8
1
  6
LONG_DASHED
 62
     2
 10
5432.000000000007
 20
5069.000000000002
 30
0.0
 11
5372.000000000007
 21
5069.000000000002
 31
0.0
  0
LINE
  5
B7
  8
1
  6
CONTINUOUS
 62
     7
 10
5257.000000000058
 20
4672.848105329867
 30
0.0
 11
5257.000000000051
 21
4649.000000000002
 31
0.0
  0
LINE
  5
B8
  8
1
  6
CONTINUOUS
 62
     7
 10
5706.999999999993
 20
4649.000000000002
 30
0.0
 11
5706.999999999991
 21
4672.848105329867
 31
0.0
  0
LINE
  5
B9
  8
1
  6
CONTINUOUS
 62
     7
 10
5257.000000000051
 20
4649.000000000002
 30
0.0
 11
5277.000000000051
 21
4649.000000000002
 31
0.0
  0
LINE
  5
BA
  8
1
  6
CONTINUOUS
 62
     7
 10
5277.000000000051
 20
4649.000000000002
 30
0.0
 11
5297.000000000051
 21
4649.000000000002
 31
0.0
  0
LINE
  5
BB
  8
1
  6
CONTINUOUS
 62
     7
 10
5666.999999999993
 20
4649.000000000002
 30
0.0
 11
5686.999999999993
 21
4649.000000000002
 31
0.0
  0
LINE
  5
BC
  8
1
  6
CONTINUOUS
 62
     7
 10
5686.999999999993
 20
4649.000000000002
 30
0.0
 11
5706.999999999993
 21
4649.000000000002
 31
0.0
  0
LINE
  5
BD
  8
1
  6
CONTINUOUS
 62
     7
 10
5706.999999999989
 20
4689.000000000002
 30
0.0
 11
5706.999999999993
 21
4689.000000000002
 31
0.0
  0
LINE
  5
BE
  8
1
  6
CONTINUOUS
 62
     7
 10
5662.000000000006
 20
5099.000000000002
 30
0.0
 11
5662.000000000005
 21
5079.055947214019
 31
0.0
  0
LINE
  5
BF
  8
1
  6
CONTINUOUS
 62
     7
 10
5662.000000000006
 20
5099.000000000002
 30
0.0
 11
5662.000000000005
 21
5079.055947214019
 31
0.0
  0
LINE
  5
C0
  8
1
  6
CONTINUOUS
 62
     7
 10
5652.000000000007
 20
5099.000000000002
 30
0.0
 11
5662.000000000006
 21
5099.000000000002
 31
0.0
  0
LINE
  5
C1
  8
1
  6
CONTINUOUS
 62
     7
 10
5312.000000000007
 20
5099.000000000002
 30
0.0
 11
5437.000000000007
 21
5099.000000000002
 31
0.0
  0
LINE
  5
C2
  8
1
  6
LONG_DASHED
 62
     2
 10
5437.000000000007
 20
5099.000000000002
 30
0.0
 11
5437.000000000007
 21
5074.000000000002
 31
0.0
  0
LINE
  5
C3
  8
1
  6
CONTINUOUS
 62
     7
 10
5437.000000000007
 20
5099.000000000002
 30
0.0
 11
5527.000000000007
 21
5099.000000000002
 31
0.0
  0
LINE
  5
C4
  8
1
  6
LONG_DASHED
 62
     2
 10
5432.000000000007
 20
5069.000000000002
 30
0.0
 11
5427.000000000006
 21
5069.000000000002
 31
0.0
  0
LINE
  5
C5
  8
1
  6
LONG_DASHED
 62
     2
 10
5527.000000000007
 20
5074.000000000002
 30
0.0
 11
5527.000000000007
 21
5099.000000000002
 31
0.0
  0
LINE
  5
C6
  8
1
  6
LONG_DASHED
 62
     2
 10
5537.00000000001
 20
5069.000000000002
 30
0.0
 11
5532.000000000007
 21
5069.000000000002
 31
0.0
  0
LINE
  5
C7
  8
1
  6
CONTINUOUS
 62
     7
 10
5527.000000000007
 20
5099.000000000002
 30
0.0
 11
5652.000000000007
 21
5099.000000000002
 31
0.0
  0
LINE
  5
C8
  8
1
  6
CONTINUOUS
 62
     7
 10
5302.000000000007
 20
5099.000000000002
 30
0.0
 11
5312.000000000007
 21
5099.000000000002
 31
0.0
  0
LINE
  5
C9
  8
1
  6
CONTINUOUS
 62
     7
 10
5706.999999999993
 20
4689.000000000002
 30
0.0
 11
5706.999999999987
 21
4689.000000000001
 31
0.0
  0
LINE
  5
CA
  8
1
  6
CONTINUOUS
 62
     7
 10
5662.000000000006
 20
5081.31830248377
 30
0.0
 11
5662.000000000005
 21
5079.055947214019
 31
0.0
  0
LINE
  5
CB
  8
1
  6
CONTINUOUS
 62
     7
 10
5662.000000000006
 20
5069.000000000001
 30
0.0
 11
5662.000000000001
 21
5069.000000000002
 31
0.0
  0
LINE
  5
CC
  8
1
  6
LONG_DASHED
 62
     2
 10
5482.000000000007
 20
5069.000000000001
 30
0.0
 11
5432.000000000007
 21
5069.000000000002
 31
0.0
  0
LINE
  5
CD
  8
1
  6
CONTINUOUS
 62
     2
 10
5706.999999999993
 20
4689.000000000002
 30
0.0
 11
5706.999999999987
 21
4689.000000000001
 31
0.0
  0
LINE
  5
CE
  8
1
  6
CONTINUOUS
 62
     7
 10
5662.000000000006
 20
5069.000000000001
 30
0.0
 11
5662.000000000001
 21
5069.000000000002
 31
0.0
  0
LINE
  5
CF
  8
1
  6
CONTINUOUS
 62
     7
 10
5662.000000000001
 20
5069.000000000002
 30
0.0
 11
5662.000000000006
 21
5069.000000000001
 31
0.0
  0
LINE
  5
D0
  8
1
  6
CONTINUOUS
 62
     7
 10
5662.000000000001
 20
5069.000000000002
 30
0.0
 11
5662.000000000006
 21
5069.000000000001
 31
0.0
  0
LINE
  5
D1
  8
1
  6
CONTINUOUS
 62
     7
 10
5662.000000000001
 20
5069.000000000002
 30
0.0
 11
5662.000000000006
 21
5069.000000000001
 31
0.0
  0
LINE
  5
D2
  8
1
  6
CONTINUOUS
 62
     7
 10
5662.000000000001
 20
5069.000000000002
 30
0.0
 11
5662.000000000006
 21
5019.000001685876
 31
0.0
  0
LINE
  5
D3
  8
1
  6
CONTINUOUS
 62
     7
 10
5662.000000000001
 20
5069.000000000002
 30
0.0
 11
5662.000000000006
 21
4917.610167684933
 31
0.0
  0
LINE
  5
D4
  8
1
  6
CONTINUOUS
 62
     2
 10
5695.000000000008
 20
4689.000000000001
 30
0.0
 11
5607.00000000004
 21
4689.00000000001
 31
0.0
  0
LINE
  5
D5
  8
1
  6
CONTINUOUS
 62
     2
 10
5607.00000000004
 20
4689.00000000001
 30
0.0
 11
5482.000000000014
 21
4689.000000000002
 31
0.0
  0
LINE
  5
D6
  8
1
  6
CONTINUOUS
 62
     2
 10
5606.763947500491
 20
4686.003483307316
 30
0.0
 11
5705.238325326121
 21
4686.003483307316
 31
0.0
  0
LINE
  5
D7
  8
1
  6
CONTINUOUS
 62
     7
 10
5607.00000000004
 20
4689.00000000001
 30
0.0
 11
5704.319301543485
 21
4689.000000000002
 31
0.0
  0
LINE
  5
D8
  8
1
  6
DOT_CENTER
 62
     2
 10
5482.000000000007
 20
5069.000000000001
 30
0.0
 11
5482.000000000007
 21
4601.000000000002
 31
0.0
  0
LINE
  5
D9
  8
1
  6
DOT_CENTER
 62
     2
 10
5482.000000000007
 20
5162.582164328658
 30
0.0
 11
5482.000000000007
 21
5069.000000000001
 31
0.0
  0
LINE
  5
DA
  8
1
  6
LONG_DASHED
 62
     2
 10
5532.000000000007
 20
5069.000000000002
 30
0.0
 11
5482.000000000007
 21
5069.000000000001
 31
0.0
  0
LINE
  5
DB
  8
1
  6
CONTINUOUS
 62
     2
 10
5482.000000000001
 20
4689.000000000002
 30
0.0
 11
5356.999999999975
 21
4689.00000000001
 31
0.0
  0
LINE
  5
DC
  8
1
  6
CONTINUOUS
 62
     7
 10
5257.000000000022
 20
4689.000000000002
 30
0.0
 11
5257.000000000026
 21
4689.000000000002
 31
0.0
  0
LINE
  5
DD
  8
1
  6
CONTINUOUS
 62
     7
 10
5257.000000000026
 20
4689.000000000002
 30
0.0
 11
5257.000000000022
 21
4689.000000000002
 31
0.0
  0
LINE
  5
DE
  8
1
  6
CONTINUOUS
 62
     2
 10
5257.000000000026
 20
4689.000000000002
 30
0.0
 11
5257.000000000022
 21
4689.000000000002
 31
0.0
  0
LINE
  5
DF
  8
1
  6
CONTINUOUS
 62
     2
 10
5356.999999999975
 20
4689.00000000001
 30
0.0
 11
5269.000000000006
 21
4689.000000000001
 31
0.0
  0
LINE
  5
E0
  8
1
  6
CONTINUOUS
 62
     2
 10
5258.761674673893
 20
4686.003483307316
 30
0.0
 11
5357.236052499524
 21
4686.003483307316
 31
0.0
  0
LINE
  5
E1
  8
1
  6
CONTINUOUS
 62
     7
 10
5259.68069845653
 20
4689.000000000002
 30
0.0
 11
5356.999999999975
 21
4689.00000000001
 31
0.0
  0
LINE
  5
E2
  8
1
  6
CONTINUOUS
 62
     7
 10
4470.004952173366
 20
4693.999999999985
 30
0.0
 11
4470.004952173366
 21
4737.140131969696
 31
0.0
  0
LINE
  5
E3
  8
1
  6
CONTINUOUS
 62
     2
 10
4465.230000000006
 20
4684.000000000004
 30
0.0
 11
4475.455594310058
 21
4684.000000000004
 31
0.0
  0
LINE
  5
E4
  8
1
  6
CONTINUOUS
 62
     2
 10
4475.455594310058
 20
4684.000000000004
 30
0.0
 11
4419.251236126023
 21
4684.000000000004
 31
0.0
  0
LINE
  5
E5
  8
1
  6
CONTINUOUS
 62
     2
 10
4465.230000000006
 20
4688.999999999985
 30
0.0
 11
4470.729611011273
 21
4688.999999999985
 31
0.0
  0
LINE
  5
E6
  8
1
  6
CONTINUOUS
 62
     7
 10
4444.242640687148
 20
4688.999999999985
 30
0.0
 11
4424.251236126026
 21
4689.000000000002
 31
0.0
  0
LINE
  5
E7
  8
1
  6
CONTINUOUS
 62
     7
 10
4427.228355337245
 20
4688.999999999985
 30
0.0
 11
4424.251236126026
 21
4689.000000000002
 31
0.0
  0
LINE
  5
E8
  8
1
  6
CONTINUOUS
 62
     7
 10
4465.004952173366
 20
4688.999999999985
 30
0.0
 11
4444.242640687148
 21
4688.999999999985
 31
0.0
  0
LINE
  5
E9
  8
1
  6
DOT_CENTER
 62
     2
 10
4725.000000000007
 20
5164.582164328657
 30
0.0
 11
4725.000000000007
 21
4740.192164767734
 31
0.0
  0
LINE
  5
EA
  8
1
  6
CONTINUOUS
 62
     2
 10
4650.753787975562
 20
4684.0
 30
0.0
 11
4799.246212024609
 21
4684.0
 31
0.0
  0
LINE
  5
EB
  8
1
  6
DOT_CENTER
 62
     2
 10
4725.000000000007
 20
4740.192164767734
 30
0.0
 11
4725.000000000007
 21
4737.140131969696
 31
0.0
  0
LINE
  5
EC
  8
1
  6
DOT_CENTER
 62
     2
 10
4725.000000000007
 20
4737.140131969696
 30
0.0
 11
4725.000000000007
 21
4688.999999999985
 31
0.0
  0
LINE
  5
ED
  8
1
  6
CONTINUOUS
 62
     7
 10
4795.019577872762
 20
4688.999999999985
 30
0.0
 11
4725.000000000007
 21
4688.999999999985
 31
0.0
  0
LINE
  5
EE
  8
1
  6
DOT_CENTER
 62
     2
 10
4725.000000000007
 20
4688.999999999985
 30
0.0
 11
4725.000000000007
 21
4609.659318637277
 31
0.0
  0
LINE
  5
EF
  8
1
  6
CONTINUOUS
 62
     7
 10
4725.000000000007
 20
4688.999999999985
 30
0.0
 11
4654.980422127252
 21
4688.999999999985
 31
0.0
  0
LINE
  5
F0
  8
1
  6
DOT_CENTER
 62
     2
 10
5004.307178568715
 20
4717.53558521871
 30
0.0
 11
5004.307178568715
 21
4633.53558521871
 31
0.0
  0
LINE
  5
F1
  8
1
  6
LONG_DASHED
 62
     2
 10
5015.307178568715
 20
4688.99999999999
 30
0.0
 11
5015.307178568715
 21
4649.000000000002
 31
0.0
  0
LINE
  5
F2
  8
1
  6
CONTINUOUS
 62
     7
 10
5011.270000000008
 20
4688.99999999999
 30
0.0
 11
5005.757359312865
 21
4688.999999999985
 31
0.0
  0
LINE
  5
F3
  8
1
  6
CONTINUOUS
 62
     7
 10
5011.270000000008
 20
4649.000000000002
 30
0.0
 11
5030.77164466277
 21
4649.000000000002
 31
0.0
  0
LINE
  5
F4
  8
1
  6
LONG_DASHED
 62
     2
 10
4993.307178568715
 20
4688.999999999985
 30
0.0
 11
4993.307178568715
 21
4649.000000000002
 31
0.0
  0
LINE
  5
F5
  8
1
  6
CONTINUOUS
 62
     7
 10
4990.270000000008
 20
4649.000000000002
 30
0.0
 11
4990.771644662762
 21
4649.000000000002
 31
0.0
  0
LINE
  5
F6
  8
1
  6
CONTINUOUS
 62
     7
 10
4990.270000000008
 20
4688.999999999985
 30
0.0
 11
4984.995047826647
 21
4688.999999999985
 31
0.0
  0
LINE
  5
F7
  8
1
  6
DOT_CENTER
 62
     2
 10
4445.692821431343
 20
4633.53558521871
 30
0.0
 11
4445.692821431343
 21
4717.53558521871
 31
0.0
  0
LINE
  5
F8
  8
1
  6
LONG_DASHED
 62
     2
 10
4714.000000000007
 20
4688.999999999985
 30
0.0
 11
4714.000000000007
 21
4649.000000000002
 31
0.0
  0
LINE
  5
F9
  8
1
  6
LONG_DASHED
 62
     2
 10
4736.000000000007
 20
4688.99999999999
 30
0.0
 11
4736.000000000007
 21
4649.000000000002
 31
0.0
  0
LINE
  5
FA
  8
1
  6
LONG_DASHED
 62
     2
 10
4456.692821431343
 20
4688.99999999999
 30
0.0
 11
4456.692821431343
 21
4649.000000000002
 31
0.0
  0
LINE
  5
FB
  8
1
  6
LONG_DASHED
 62
     2
 10
4434.692821431343
 20
4688.999999999985
 30
0.0
 11
4434.692821431343
 21
4649.000000000002
 31
0.0
  0
LINE
  5
FC
  8
1
  6
DOT_CENTER
 62
     2
 10
5163.801948466061
 20
5558.999999999978
 30
0.0
 11
5800.198051533954
 21
5558.999999999978
 31
0.0
  0
LINE
  5
FD
  8
1
  6
CONTINUOUS
 62
     7
 10
5706.999999999985
 20
5363.999999999979
 30
0.0
 11
5707.000000000006
 21
5753.999999999954
 31
0.0
  0
LINE
  5
FE
  8
1
  6
CONTINUOUS
 62
     7
 10
5287.000000000006
 20
5333.999999999978
 30
0.0
 11
5676.999999999985
 21
5333.999999999981
 31
0.0
  0
LINE
  5
FF
  8
1
  6
CONTINUOUS
 62
     7
 10
5257.000000000006
 20
5753.999999999648
 30
0.0
 11
5257.000000000006
 21
5363.999999999979
 31
0.0
  0
LINE
  5
100
  8
1
  6
CONTINUOUS
 62
     7
 10
5676.999999999981
 20
5783.999999999955
 30
0.0
 11
5286.999999999984
 21
5783.999999999648
 31
0.0
  0
LINE
  5
101
  8
1
  6
CONTINUOUS
 62
     2
 10
5620.564064605855
 20
5339.000000000193
 30
0.0
 11
5677.000000000007
 21
5339.00000000001
 31
0.0
  0
LINE
  5
102
  8
1
  6
CONTINUOUS
 62
     2
 10
5262.00000000022
 20
5420.435935394133
 30
0.0
 11
5262.000000000037
 21
5363.999999999981
 31
0.0
  0
LINE
  5
103
  8
1
  6
CONTINUOUS
 62
     2
 10
5343.435935394161
 20
5778.999999999767
 30
0.0
 11
5287.000000000007
 21
5778.999999999948
 31
0.0
  0
LINE
  5
104
  8
1
  6
CONTINUOUS
 62
     2
 10
5701.999999999975
 20
5363.999999999978
 30
0.0
 11
5701.999999999864
 21
5420.435935394239
 31
0.0
  0
LINE
  5
105
  8
1
  6
CONTINUOUS
 62
     2
 10
5287.000000000006
 20
5339.000000000012
 30
0.0
 11
5343.435935394267
 21
5339.000000000125
 31
0.0
  0
LINE
  5
106
  8
1
  6
CONTINUOUS
 62
     2
 10
5262.000000000039
 20
5753.99999999998
 30
0.0
 11
5262.000000000153
 21
5697.56406460572
 31
0.0
  0
LINE
  5
107
  8
1
  6
CONTINUOUS
 62
     7
 10
5706.999999999948
 20
5679.838015129141
 30
0.0
 11
5706.999999999948
 21
5679.000000000088
 31
0.0
  0
LINE
  5
108
  8
1
  6
CONTINUOUS
 62
     7
 10
5706.999999999948
 20
5679.838015129141
 30
0.0
 11
5707.000000000008
 21
5679.838015129139
 31
0.0
  0
LINE
  5
109
  8
1
  6
CONTINUOUS
 62
     7
 10
5706.999999999948
 20
5679.838015129141
 30
0.0
 11
5707.000000000008
 21
5679.838015129139
 31
0.0
  0
LINE
  5
10A
  8
1
  6
CONTINUOUS
 62
     7
 10
5780.9916278413
 20
5539.793576307311
 30
0.0
 11
5780.991627841258
 21
5539.793576307354
 31
0.0
  0
LINE
  5
10B
  8
1
  6
CONTINUOUS
 62
     2
 10
5701.999999999795
 20
5697.564064605826
 30
0.0
 11
5701.999999999976
 21
5753.999999999979
 31
0.0
  0
LINE
  5
10C
  8
1
  6
CONTINUOUS
 62
     2
 10
5677.000000000007
 20
5778.999999999947
 30
0.0
 11
5620.564064605747
 21
5778.999999999835
 31
0.0
  0
LINE
  5
10D
  8
1
  6
CONTINUOUS
 62
     7
 10
5606.222956308021
 20
5783.999999999989
 30
0.0
 11
5606.222956308022
 21
5783.999999999996
 31
0.0
  0
LINE
  5
10E
  8
1
  6
CONTINUOUS
 62
     7
 10
5301.999999999975
 20
5408.999999999977
 30
0.0
 11
5301.999999999976
 21
5708.949776659555
 31
0.0
  0
LINE
  5
10F
  8
1
  6
CONTINUOUS
 62
     7
 10
5331.999999999976
 20
5738.949776659555
 30
0.0
 11
5631.999999999976
 21
5738.949776659555
 31
0.0
  0
LINE
  5
110
  8
1
  6
CONTINUOUS
 62
     7
 10
5661.999999999976
 20
5708.949776659555
 30
0.0
 11
5661.999999999977
 21
5408.999999999978
 31
0.0
  0
LINE
  5
111
  8
1
  6
CONTINUOUS
 62
     7
 10
5631.999999999977
 20
5378.999999999978
 30
0.0
 11
5331.999999999975
 21
5378.999999999977
 31
0.0
  0
LINE
  5
112
  8
1
  6
CONTINUOUS
 62
     7
 10
5606.222956308022
 20
5783.999999999996
 30
0.0
 11
5606.222956308021
 21
5783.999999999989
 31
0.0
  0
LINE
  5
113
  8
1
  6
CONTINUOUS
 62
     7
 10
5707.000000000008
 20
5679.838015129139
 30
0.0
 11
5706.999999999948
 21
5679.838015129141
 31
0.0
  0
LINE
  5
114
  8
1
  6
CONTINUOUS
 62
     2
 10
5290.479797464635
 20
5342.47979746454
 30
0.0
 11
5290.479797464637
 21
5342.479797464384
 31
0.0
  0
LINE
  5
115
  8
1
  6
CONTINUOUS
 62
     2
 10
5698.520202535608
 20
5367.47979746444
 30
0.0
 11
5698.520202535762
 21
5367.479797464439
 31
0.0
  0
LINE
  5
116
  8
1
  6
CONTINUOUS
 62
     2
 10
5702.0
 20
5753.999999999955
 30
0.0
 11
5701.999999999845
 21
5753.999999999955
 31
0.0
  0
LINE
  5
117
  8
1
  6
CONTINUOUS
 62
     2
 10
5676.999999999975
 20
5778.999999999979
 30
0.0
 11
5666.999999999492
 21
5778.999999999978
 31
0.0
  0
LINE
  5
118
  8
1
  6
CONTINUOUS
 62
     2
 10
5265.479797464587
 20
5367.479797464433
 30
0.0
 11
5265.479797464744
 21
5367.479797464434
 31
0.0
  0
LINE
  5
119
  8
1
  6
DOT_CENTER
 62
     2
 10
5482.000000000006
 20
5849.999999999956
 30
0.0
 11
5482.000000000007
 21
5240.801948466032
 31
0.0
  0
LINE
  5
11A
  8
1
  6
DOT_CENTER
 62
     2
 10
5660.365500428272
 20
5361.499999999978
 30
0.0
 11
5699.186024226321
 21
5361.499999999977
 31
0.0
  0
LINE
  5
11B
  8
1
  6
DOT_CENTER
 62
     2
 10
5679.500000000007
 20
5379.246355753927
 30
0.0
 11
5679.500000000006
 21
5343.096371344666
 31
0.0
  0
LINE
  5
11C
  8
1
  6
DOT_CENTER
 62
     2
 10
5264.813975773694
 20
5361.499999999977
 30
0.0
 11
5303.634499571743
 21
5361.499999999978
 31
0.0
  0
LINE
  5
11D
  8
1
  6
DOT_CENTER
 62
     2
 10
5284.500000000008
 20
5343.096371344666
 30
0.0
 11
5284.500000000007
 21
5379.246355753927
 31
0.0
  0
LINE
  5
11E
  8
1
  6
DOT_CENTER
 62
     2
 10
5679.500000000006
 20
5774.90362865529
 30
0.0
 11
5679.500000000006
 21
5738.75364424603
 31
0.0
  0
LINE
  5
11F
  8
1
  6
DOT_CENTER
 62
     2
 10
5699.18602422632
 20
5756.499999999979
 30
0.0
 11
5660.365500428271
 21
5756.499999999978
 31
0.0
  0
LINE
  5
120
  8
1
  6
DOT_CENTER
 62
     2
 10
5303.634499571742
 20
5756.499999999978
 30
0.0
 11
5264.813975773693
 21
5756.499999999979
 31
0.0
  0
LINE
  5
121
  8
1
  6
DOT_CENTER
 62
     2
 10
5284.500000000006
 20
5738.75364424603
 30
0.0
 11
5284.500000000007
 21
5774.90362865529
 31
0.0
  0
LINE
  5
122
  8
1
  6
LONG_DASHED
 62
     2
 10
5668.500000000006
 20
4688.999999999985
 30
0.0
 11
5668.500000000006
 21
4649.000000000002
 31
0.0
  0
LINE
  5
123
  8
1
  6
LONG_DASHED
 62
     2
 10
5690.500000000006
 20
4688.99999999999
 30
0.0
 11
5690.500000000006
 21
4649.000000000002
 31
0.0
  0
LINE
  5
124
  8
1
  6
DOT_CENTER
 62
     2
 10
5679.500000000006
 20
4633.53558521871
 30
0.0
 11
5679.500000000006
 21
4717.53558521871
 31
0.0
  0
LINE
  5
125
  8
1
  6
LONG_DASHED
 62
     2
 10
5273.500000000008
 20
4688.999999999985
 30
0.0
 11
5273.500000000008
 21
4649.000000000002
 31
0.0
  0
LINE
  5
126
  8
1
  6
DOT_CENTER
 62
     2
 10
5284.500000000008
 20
4633.53558521871
 30
0.0
 11
5284.500000000008
 21
4717.53558521871
 31
0.0
  0
LINE
  5
127
  8
1
  6
LONG_DASHED
 62
     2
 10
5295.500000000008
 20
4688.99999999999
 30
0.0
 11
5295.500000000008
 21
4649.000000000002
 31
0.0
  0
LINE
  5
128
  8
1
  6
CONTINUOUS
 62
     7
 10
5302.000000000006
 20
4776.993586411567
 30
0.0
 11
5302.000000000012
 21
5069.000000000002
 31
0.0
  0
LINE
  5
129
  8
1
  6
CONTINUOUS
 62
     7
 10
5302.000000000012
 20
5069.000000000002
 30
0.0
 11
5302.000000000006
 21
5069.000000000001
 31
0.0
  0
LINE
  5
12A
  8
1
  6
CONTINUOUS
 62
     7
 10
5302.000000000012
 20
5069.000000000002
 30
0.0
 11
5302.000000000006
 21
5069.000000000001
 31
0.0
  0
LINE
  5
12B
  8
1
  6
CONTINUOUS
 62
     7
 10
5302.000000000006
 20
5069.000000000001
 30
0.0
 11
5302.000000000012
 21
5069.000000000002
 31
0.0
  0
LINE
  5
12C
  8
1
  6
CONTINUOUS
 62
     7
 10
5302.000000000006
 20
5069.000000000001
 30
0.0
 11
5302.000000000012
 21
5069.000000000002
 31
0.0
  0
LINE
  5
12D
  8
1
  6
CONTINUOUS
 62
     7
 10
5302.000000000006
 20
5069.000000000001
 30
0.0
 11
5302.000000000012
 21
5069.000000000002
 31
0.0
  0
LINE
  5
12E
  8
1
  6
CONTINUOUS
 62
     7
 10
5302.000000000012
 20
5069.000000000002
 30
0.0
 11
5302.000000000008
 21
5079.055947214019
 31
0.0
  0
LINE
  5
12F
  8
1
  6
CONTINUOUS
 62
     7
 10
5302.000000000012
 20
5069.000000000002
 30
0.0
 11
5302.000000000008
 21
5079.055947214019
 31
0.0
  0
LINE
  5
130
  8
1
  6
CONTINUOUS
 62
     7
 10
5302.000000000012
 20
5069.000000000002
 30
0.0
 11
5302.000000000008
 21
5079.055947214019
 31
0.0
  0
LINE
  5
131
  8
1
  6
CONTINUOUS
 62
     7
 10
5302.000000000008
 20
5079.055947214019
 30
0.0
 11
5302.000000000006
 21
5081.31830248377
 31
0.0
  0
LINE
  5
132
  8
1
  6
CONTINUOUS
 62
     7
 10
5302.000000000012
 20
5069.000000000002
 30
0.0
 11
5302.000000000006
 21
5069.000000000001
 31
0.0
  0
LINE
  5
133
  8
1
  6
CONTINUOUS
 62
     7
 10
5302.000000000012
 20
5069.000000000002
 30
0.0
 11
5302.000000000006
 21
5069.000000000001
 31
0.0
  0
LINE
  5
134
  8
1
  6
CONTINUOUS
 62
     7
 10
5302.000000000006
 20
5069.000000000001
 30
0.0
 11
5302.000000000012
 21
5069.000000000002
 31
0.0
  0
LINE
  5
135
  8
1
  6
CONTINUOUS
 62
     7
 10
5302.000000000006
 20
5069.000000000001
 30
0.0
 11
5302.000000000012
 21
5069.000000000002
 31
0.0
  0
LINE
  5
136
  8
1
  6
CONTINUOUS
 62
     7
 10
5302.000000000006
 20
5069.000000000001
 30
0.0
 11
5302.000000000012
 21
5069.000000000002
 31
0.0
  0
LINE
  5
137
  8
1
  6
CONTINUOUS
 62
     7
 10
5302.000000000008
 20
5079.055947214019
 30
0.0
 11
5302.000000000007
 21
5099.000000000002
 31
0.0
  0
LINE
  5
138
  8
1
  6
CONTINUOUS
 62
     7
 10
5302.000000000008
 20
5079.055947214019
 30
0.0
 11
5302.000000000007
 21
5099.000000000002
 31
0.0
  0
LINE
  5
139
  8
1
  6
CONTINUOUS
 62
     7
 10
5302.000000000008
 20
5079.055947214019
 30
0.0
 11
5302.000000000006
 21
5081.31830248377
 31
0.0
  0
LINE
  5
13A
  8
1
  6
DOT_CENTER
 62
     2
 10
5679.500000000007
 20
3995.24635575395
 30
0.0
 11
5679.500000000006
 21
3959.096371344689
 31
0.0
  0
LINE
  5
13B
  8
1
  6
DOT_CENTER
 62
     2
 10
5660.365500428272
 20
3977.500000000001
 30
0.0
 11
5699.186024226321
 21
3977.5
 31
0.0
  0
LINE
  5
13C
  8
1
  6
CONTINUOUS
 62
     2
 10
4952.972966856458
 20
5069.000000000002
 30
0.0
 11
4502.972966856458
 21
5069.000000000002
 31
0.0
  0
LINE
  5
13D
  8
1
  6
CONTINUOUS
 62
     2
 10
4174.972966856458
 20
5168.999999999998
 30
0.0
 11
3724.972966856458
 21
5168.999999999998
 31
0.0
  0
LINE
  5
13E
  8
1
  6
DOT_CENTER
 62
     2
 10
5284.500000000008
 20
3959.096371344689
 30
0.0
 11
5284.500000000007
 21
3995.24635575395
 31
0.0
  0
LINE
  5
13F
  8
1
  6
DOT_CENTER
 62
     2
 10
5264.813975773694
 20
3977.5
 30
0.0
 11
5303.634499571743
 21
3977.500000000001
 31
0.0
  0
LINE
  5
140
  8
1
  6
DOT_CENTER
 62
     2
 10
5679.500000000006
 20
4390.90362865532
 30
0.0
 11
5679.500000000007
 21
4354.75364424606
 31
0.0
  0
LINE
  5
141
  8
1
  6
DOT_CENTER
 62
     2
 10
5699.186024226321
 20
4372.500000000009
 30
0.0
 11
5660.365500428272
 21
4372.500000000008
 31
0.0
  0
LINE
  5
142
  8
1
  6
DOT_CENTER
 62
     2
 10
5303.634499571743
 20
4372.500000000008
 30
0.0
 11
5264.813975773694
 21
4372.500000000009
 31
0.0
  0
LINE
  5
143
  8
1
  6
DOT_CENTER
 62
     2
 10
5284.500000000007
 20
4354.75364424606
 30
0.0
 11
5284.500000000008
 21
4390.90362865532
 31
0.0
  0
LINE
  5
144
  8
1
  6
CONTINUOUS
 62
     2
 10
4943.34718852748
 20
5052.0
 30
0.0
 11
4514.34718852748
 21
5052.0
 31
0.0
  0
LINE
  5
145
  8
1
  6
CONTINUOUS
 62
     2
 10
4964.83968801176
 20
4683.999999999985
 30
0.0
 11
4813.83968801176
 21
4683.999999999985
 31
0.0
  0
LINE
  5
146
  8
1
  6
CONTINUOUS
 62
     2
 10
4634.91739645617
 20
4683.999999999985
 30
0.0
 11
4485.91739645617
 21
4683.999999999985
 31
0.0
  0
LINE
  5
147
  8
1
  6
CONTINUOUS
 62
     2
 10
4955.56243552513
 20
4701.308810254872
 30
0.0
 11
4809.56243552513
 21
4701.308810254872
 31
0.0
  0
LINE
  5
148
  8
1
  6
CONTINUOUS
 62
     2
 10
4640.437564474884
 20
4701.308810254872
 30
0.0
 11
4494.437564474884
 21
4701.308810254872
 31
0.0
  0
LINE
  5
149
  8
1
  6
CONTINUOUS
 62
     2
 10
4186.83968801176
 20
4683.999999999982
 30
0.0
 11
4035.83968801176
 21
4683.999999999982
 31
0.0
  0
LINE
  5
14A
  8
1
  6
CONTINUOUS
 62
     2
 10
4177.56243552513
 20
4701.308810254868
 30
0.0
 11
4031.56243552513
 21
4701.308810254868
 31
0.0
  0
LINE
  5
14B
  8
1
  6
CONTINUOUS
 62
     2
 10
3872.753787975562
 20
4683.999999999996
 30
0.0
 11
4021.246212024609
 21
4683.999999999996
 31
0.0
  0
LINE
  5
14C
  8
1
  6
DOT_CENTER
 62
     2
 10
3947.000000000007
 20
4740.19216476773
 30
0.0
 11
3947.000000000007
 21
4737.140131969692
 31
0.0
  0
LINE
  5
14D
  8
1
  6
DOT_CENTER
 62
     2
 10
3947.000000000007
 20
4737.140131969692
 30
0.0
 11
3947.000000000007
 21
4688.999999999982
 31
0.0
  0
LINE
  5
14E
  8
1
  6
CONTINUOUS
 62
     7
 10
4017.019577872762
 20
4688.999999999982
 30
0.0
 11
3947.000000000007
 21
4688.999999999982
 31
0.0
  0
LINE
  5
14F
  8
1
  6
CONTINUOUS
 62
     7
 10
3947.000000000007
 20
4688.999999999982
 30
0.0
 11
3876.980422127252
 21
4688.999999999982
 31
0.0
  0
LINE
  5
150
  8
1
  6
LONG_DASHED
 62
     2
 10
3936.000000000007
 20
4688.999999999982
 30
0.0
 11
3936.000000000007
 21
4648.999999999998
 31
0.0
  0
LINE
  5
151
  8
1
  6
LONG_DASHED
 62
     2
 10
3958.000000000007
 20
4688.999999999986
 30
0.0
 11
3958.000000000007
 21
4648.999999999998
 31
0.0
  0
LINE
  5
152
  8
1
  6
LONG_DASHED
 62
     2
 10
3678.692821431343
 20
4688.999999999986
 30
0.0
 11
3678.692821431343
 21
4648.999999999998
 31
0.0
  0
LINE
  5
153
  8
1
  6
LONG_DASHED
 62
     2
 10
3656.692821431343
 20
4688.999999999982
 30
0.0
 11
3656.692821431343
 21
4648.999999999998
 31
0.0
  0
LINE
  5
154
  8
1
  6
DOT_CENTER
 62
     2
 10
3667.692821431343
 20
4633.535585218707
 30
0.0
 11
3667.692821431343
 21
4717.535585218707
 31
0.0
  0
LINE
  5
155
  8
1
  6
LONG_DASHED
 62
     2
 10
4215.307178568715
 20
4688.999999999982
 30
0.0
 11
4215.307178568715
 21
4648.999999999998
 31
0.0
  0
LINE
  5
156
  8
1
  6
LONG_DASHED
 62
     2
 10
4237.307178568715
 20
4688.999999999986
 30
0.0
 11
4237.307178568715
 21
4648.999999999998
 31
0.0
  0
LINE
  5
157
  8
1
  6
DOT_CENTER
 62
     2
 10
4226.307178568715
 20
4717.535585218707
 30
0.0
 11
4226.307178568715
 21
4633.535585218707
 31
0.0
  0
LINE
  5
158
  8
1
  6
CONTINUOUS
 62
     2
 10
3856.91739645617
 20
4683.999999999982
 30
0.0
 11
3707.91739645617
 21
4683.999999999982
 31
0.0
  0
LINE
  5
159
  8
1
  6
CONTINUOUS
 62
     2
 10
3862.437564474884
 20
4701.308810254868
 30
0.0
 11
3716.437564474884
 21
4701.308810254868
 31
0.0
  0
LINE
  5
15A
  8
1
  6
CONTINUOUS
 62
     2
 10
4165.34718852748
 20
5151.999999999996
 30
0.0
 11
3736.34718852748
 21
5151.999999999996
 31
0.0
  0
LINE
  5
15B
  8
1
  6
CONTINUOUS
 62
     7
 10
5587.000000000007
 20
4400.000000000001
 30
0.0
 11
5587.000000000007
 21
4295.726964676504
 31
0.0
  0
LINE
  5
15C
  8
1
  6
CONTINUOUS
 62
     7
 10
5579.500000000006
 20
4400.000000000001
 30
0.0
 11
5607.000000000007
 21
4400.000000000001
 31
0.0
  0
LINE
  5
15D
  8
1
  6
CONTINUOUS
 62
     7
 10
5707.000000000007
 20
4280.000000000003
 30
0.0
 11
5602.726964676507
 21
4280.000000000003
 31
0.0
  0
LINE
  5
15E
  8
1
  6
CONTINUOUS
 62
     7
 10
5707.000000000007
 20
4272.500000000009
 30
0.0
 11
5707.000000000007
 21
4295.838015129135
 31
0.0
  0
LINE
  5
15F
  8
1
  6
CONTINUOUS
 62
     7
 10
5579.500000000006
 20
4649.000000000002
 30
0.0
 11
5666.999999999993
 21
4649.000000000002
 31
0.0
  0
LINE
  5
160
  8
1
  6
CONTINUOUS
 62
     7
 10
5576.500000000006
 20
4652.000000000002
 30
0.0
 11
5482.000000000007
 21
4652.000000000002
 31
0.0
  0
LINE
  5
161
  8
1
  6
CONTINUOUS
 62
     7
 10
5482.000000000007
 20
4652.000000000002
 30
0.0
 11
5387.500000000008
 21
4652.000000000002
 31
0.0
  0
LINE
  5
162
  8
1
  6
CONTINUOUS
 62
     7
 10
5297.000000000022
 20
4649.000000000002
 30
0.0
 11
5384.500000000008
 21
4649.000000000002
 31
0.0
  0
LINE
  5
163
  8
1
  6
CONTINUOUS
 62
     2
 10
5707.000000000007
 20
4277.000000000003
 30
0.0
 11
5605.27205684989
 21
4277.000000000003
 31
0.0
  0
LINE
  5
164
  8
1
  6
CONTINUOUS
 62
     7
 10
5707.000000000007
 20
4269.500000000009
 30
0.0
 11
5707.000000000007
 21
4272.500000000009
 31
0.0
  0
LINE
  5
165
  8
1
  6
CONTINUOUS
 62
     2
 10
5584.000000000007
 20
4400.000000000001
 30
0.0
 11
5584.000000000007
 21
4298.272056849888
 31
0.0
  0
LINE
  5
166
  8
1
  6
CONTINUOUS
 62
     7
 10
5576.500000000006
 20
4400.000000000001
 30
0.0
 11
5579.500000000006
 21
4400.000000000001
 31
0.0
  0
LINE
  5
167
  8
1
  6
CONTINUOUS
 62
     7
 10
4958.345237791573
 20
4649.000000000002
 30
0.0
 11
4990.270000000008
 21
4649.000000000002
 31
0.0
  0
LINE
  5
168
  8
1
  6
CONTINUOUS
 62
     7
 10
4955.345237791573
 20
4652.000000000002
 30
0.0
 11
4812.852813742399
 21
4652.000000000003
 31
0.0
  0
LINE
  5
169
  8
1
  6
CONTINUOUS
 62
     7
 10
4640.147186257629
 20
4649.000000000003
 30
0.0
 11
4725.00000000001
 21
4649.000000000003
 31
0.0
  0
LINE
  5
16A
  8
1
  6
CONTINUOUS
 62
     7
 10
4444.242640687148
 20
4649.000000000002
 30
0.0
 11
4459.228355337252
 21
4649.000000000002
 31
0.0
  0
LINE
  5
16B
  8
1
  6
CONTINUOUS
 62
     7
 10
4438.730000000006
 20
4649.000000000002
 30
0.0
 11
4444.242640687148
 21
4649.000000000002
 31
0.0
  0
LINE
  5
16C
  8
1
  6
CONTINUOUS
 62
     7
 10
4419.228355337244
 20
4649.000000000002
 30
0.0
 11
4438.730000000006
 21
4649.000000000002
 31
0.0
  0
LINE
  5
16D
  8
1
  6
CONTINUOUS
 62
     7
 10
4459.228355337252
 20
4649.000000000002
 30
0.0
 11
4459.730000000006
 21
4649.000000000002
 31
0.0
  0
LINE
  5
16E
  8
1
  6
CONTINUOUS
 62
     7
 10
4459.730000000006
 20
4649.000000000002
 30
0.0
 11
4491.654762208455
 21
4649.000000000002
 31
0.0
  0
LINE
  5
16F
  8
1
  6
CONTINUOUS
 62
     7
 10
4637.147186257629
 20
4652.000000000003
 30
0.0
 11
4494.654762208455
 21
4652.000000000002
 31
0.0
  0
LINE
  5
170
  8
1
  6
CONTINUOUS
 62
     7
 10
3947.000000000004
 20
4648.999999999999
 30
0.0
 11
4031.852813742399
 21
4648.999999999999
 31
0.0
  0
LINE
  5
171
  8
1
  6
CONTINUOUS
 62
     7
 10
4212.771644662762
 20
4648.999999999998
 30
0.0
 11
4227.757359312865
 21
4648.999999999998
 31
0.0
  0
LINE
  5
172
  8
1
  6
CONTINUOUS
 62
     7
 10
4227.757359312865
 20
4648.999999999998
 30
0.0
 11
4233.270000000008
 21
4648.999999999998
 31
0.0
  0
LINE
  5
173
  8
1
  6
CONTINUOUS
 62
     7
 10
4233.270000000008
 20
4648.999999999998
 30
0.0
 11
4252.77164466277
 21
4648.999999999998
 31
0.0
  0
LINE
  5
174
  8
1
  6
CONTINUOUS
 62
     7
 10
4212.270000000008
 20
4648.999999999998
 30
0.0
 11
4212.771644662762
 21
4648.999999999998
 31
0.0
  0
LINE
  5
175
  8
1
  6
CONTINUOUS
 62
     7
 10
4180.345237791573
 20
4648.999999999998
 30
0.0
 11
4212.270000000008
 21
4648.999999999998
 31
0.0
  0
LINE
  5
176
  8
1
  6
CONTINUOUS
 62
     7
 10
4177.345237791573
 20
4651.999999999998
 30
0.0
 11
4034.852813742399
 21
4651.999999999999
 31
0.0
  0
LINE
  5
177
  8
1
  6
CONTINUOUS
 62
     7
 10
3862.147186257629
 20
4648.999999999999
 30
0.0
 11
3947.00000000001
 21
4648.999999999999
 31
0.0
  0
LINE
  5
178
  8
1
  6
CONTINUOUS
 62
     7
 10
3666.242640687148
 20
4648.999999999998
 30
0.0
 11
3681.228355337252
 21
4648.999999999998
 31
0.0
  0
LINE
  5
179
  8
1
  6
CONTINUOUS
 62
     7
 10
3660.730000000006
 20
4648.999999999998
 30
0.0
 11
3666.242640687148
 21
4648.999999999998
 31
0.0
  0
LINE
  5
17A
  8
1
  6
CONTINUOUS
 62
     7
 10
3641.228355337244
 20
4648.999999999998
 30
0.0
 11
3660.730000000006
 21
4648.999999999998
 31
0.0
  0
LINE
  5
17B
  8
1
  6
CONTINUOUS
 62
     7
 10
3681.228355337252
 20
4648.999999999998
 30
0.0
 11
3681.730000000006
 21
4648.999999999998
 31
0.0
  0
LINE
  5
17C
  8
1
  6
CONTINUOUS
 62
     7
 10
3681.730000000006
 20
4648.999999999998
 30
0.0
 11
3713.654762208455
 21
4648.999999999998
 31
0.0
  0
LINE
  5
17D
  8
1
  6
CONTINUOUS
 62
     7
 10
3859.147186257629
 20
4651.999999999999
 30
0.0
 11
3716.654762208455
 21
4651.999999999998
 31
0.0
  0
LINE
  5
17E
  8
1
  6
CONTINUOUS
 62
     2
 10
5380.000000000007
 20
4298.272056849888
 30
0.0
 11
5380.000000000007
 21
4400.000000000001
 31
0.0
  0
LINE
  5
17F
  8
1
  6
CONTINUOUS
 62
     7
 10
5377.000000000007
 20
4295.726964676504
 30
0.0
 11
5377.000000000007
 21
4400.000000000001
 31
0.0
  0
LINE
  5
180
  8
1
  6
CONTINUOUS
 62
     7
 10
5361.273035323507
 20
4280.000000000003
 30
0.0
 11
5257.000000000007
 21
4280.000000000003
 31
0.0
  0
LINE
  5
181
  8
1
  6
CONTINUOUS
 62
     2
 10
5358.727943150125
 20
4277.000000000003
 30
0.0
 11
5257.000000000007
 21
4277.000000000003
 31
0.0
  0
LINE
  5
182
  8
1
  6
CONTINUOUS
 62
     2
 10
5605.27205684989
 20
4073.000000000006
 30
0.0
 11
5707.000000000007
 21
4073.000000000006
 31
0.0
  0
LINE
  5
183
  8
1
  6
CONTINUOUS
 62
     7
 10
5602.726964676507
 20
4070.000000000006
 30
0.0
 11
5707.000000000007
 21
4070.000000000006
 31
0.0
  0
LINE
  5
184
  8
1
  6
CONTINUOUS
 62
     2
 10
5584.000000000007
 20
4051.72794315012
 30
0.0
 11
5584.000000000007
 21
3950.000000000007
 31
0.0
  0
LINE
  5
185
  8
1
  6
CONTINUOUS
 62
     7
 10
5587.000000000007
 20
4054.273035323504
 30
0.0
 11
5587.000000000007
 21
3950.000000000007
 31
0.0
  0
LINE
  5
186
  8
1
  6
CONTINUOUS
 62
     2
 10
5380.000000000007
 20
3950.000000000007
 30
0.0
 11
5380.000000000007
 21
4051.72794315012
 31
0.0
  0
LINE
  5
187
  8
1
  6
CONTINUOUS
 62
     7
 10
5377.000000000007
 20
3950.000000000007
 30
0.0
 11
5377.000000000007
 21
4054.273035323504
 31
0.0
  0
LINE
  5
188
  8
1
  6
CONTINUOUS
 62
     2
 10
5257.000000000007
 20
4073.000000000006
 30
0.0
 11
5358.727943150125
 21
4073.000000000006
 31
0.0
  0
LINE
  5
189
  8
1
  6
CONTINUOUS
 62
     7
 10
5257.000000000007
 20
4070.000000000006
 30
0.0
 11
5361.273035323507
 21
4070.000000000006
 31
0.0
  0
LINE
  5
18A
  8
1
  6
DOT_CENTER
 62
     2
 10
5482.000000000009
 20
4175.000000000015
 30
0.0
 11
5743.065699521813
 21
4175.000000000001
 31
0.0
  0
ARC
  5
18B
  8
1
  6
CONTINUOUS
 62
     7
 10
5612.000000000003
 20
5079.055947214038
 30
0.0
 40
49.99999999999496
 50
337.9475439767162
 51
359.9999999999791
  0
ARC
  5
18C
  8
1
  6
CONTINUOUS
 62
     7
 10
4254.988336764121
 20
4905.46796851932
 30
0.0
 40
272.1732381871881
 50
322.5408691479732
 51
30.47910361496769
  0
ARC
  5
18D
  8
1
  6
CONTINUOUS
 62
     7
 10
4532.572140071843
 20
5069.000000000002
 30
0.0
 40
50.0
 50
180.0
 51
210.6361376165107
  0
ARC
  5
18E
  8
1
  6
CONTINUOUS
 62
     7
 10
5193.477836178141
 20
4905.50940562538
 30
0.0
 40
270.8313635487921
 50
149.3638623834883
 51
217.618905679592
  0
ARC
  5
18F
  8
1
  6
CONTINUOUS
 62
     7
 10
4917.427859928172
 20
5069.000000000002
 30
0.0
 40
49.99999999999696
 50
329.3638623834888
 51
0.0
  0
ARC
  5
190
  8
1
  6
CONTINUOUS
 62
     7
 10
4953.45858399382
 20
4917.610167684938
 30
0.0
 40
380.0000000000013
 50
325.3045593824766
 51
334.7790029798982
  0
ARC
  5
191
  8
1
  6
CONTINUOUS
 62
     7
 10
5252.00000000003
 20
4776.993586411567
 30
0.0
 40
49.99999999999464
 50
334.7790029798979
 51
0.0
  0
ARC
  5
192
  8
1
  6
CONTINUOUS
 62
     7
 10
5307.000000000052
 20
4672.848105329863
 30
0.0
 40
49.99999999999993
 50
145.304559382476
 51
179.9999999999948
  0
ARC
  5
193
  8
1
  6
CONTINUOUS
 62
     7
 10
6010.541416006215
 20
4917.610167684938
 30
0.0
 40
380.000000000001
 50
212.206472099074
 51
214.6954406175235
  0
ARC
  5
194
  8
1
  6
CONTINUOUS
 62
     7
 10
5656.999999999983
 20
4672.848105329863
 30
0.0
 40
50.00000000000198
 50
18.84674365446293
 51
34.69544061752343
  0
ARC
  5
195
  8
1
  6
CONTINUOUS
 62
     2
 10
4414.381758974098
 20
4905.291865200997
 30
0.0
 40
271.0648130768197
 50
214.942422775512
 51
218.1846751509026
  0
ARC
  5
196
  8
1
  6
CONTINUOUS
 62
     2
 10
3479.618241025917
 20
4905.291865200997
 30
0.0
 40
271.0648130768192
 50
321.8153248490974
 51
325.057577224488
  0
ARC
  5
197
  8
1
  6
CONTINUOUS
 62
     7
 10
3479.61824102569
 20
4905.291865201161
 30
0.0
 40
270.0000000000001
 50
322.2319934935472
 51
325.9449040757286
  0
ARC
  5
198
  8
1
  6
CONTINUOUS
 62
     7
 10
3707.455594310059
 20
4751.294655978461
 30
0.0
 40
5.000000000012157
 50
145.9449040757267
 51
180.0
  0
ARC
  5
199
  8
1
  6
CONTINUOUS
 62
     7
 10
4414.381758974325
 20
4905.291865201161
 30
0.0
 40
270.0
 50
180.0
 51
217.7680065064511
  0
ARC
  5
19A
  8
1
  6
LONG_DASHED
 62
     2
 10
5482.000000000044
 20
4174.99999999999
 30
0.0
 40
254.9999999999834
 50
298.072486935854
 51
331.9275130641203
  0
ARC
  5
19B
  8
1
  6
LONG_DASHED
 62
     2
 10
5482.000000000018
 20
4175.000000000011
 30
0.0
 40
254.9999999999819
 50
118.0724869358792
 51
151.9275130641455
  0
ARC
  5
19C
  8
1
  6
LONG_DASHED
 62
     2
 10
5482.000000000018
 20
4174.999999999989
 30
0.0
 40
254.9999999999831
 50
208.0724869358545
 51
241.9275130641209
  0
ARC
  5
19D
  8
1
  6
LONG_DASHED
 62
     2
 10
5482.000000000044
 20
4175.000000000012
 30
0.0
 40
254.9999999999832
 50
28.07248693587976
 51
61.92751306414613
  0
ARC
  5
19E
  8
1
  6
CONTINUOUS
 62
     2
 10
3691.427745245092
 20
4693.201360532514
 30
0.0
 40
10.99999999996935
 50
303.2289726579555
 51
1.2828043813484
  0
ARC
  5
19F
  8
1
  6
CONTINUOUS
 62
     2
 10
4202.572254754923
 20
4693.201360532514
 30
0.0
 40
10.99999999996855
 50
178.7171956186515
 51
236.7710273420445
  0
LINE
  5
1A0
  8
1
  6
CONTINUOUS
 62
     7
 10
4252.74876387398
 20
4683.999999999982
 30
0.0
 11
4252.74876387398
 21
4684.0
 31
0.0
  0
ARC
  5
1A1
  8
1
  6
CONTINUOUS
 62
     7
 10
4414.381758974325
 20
5005.291865201161
 30
0.0
 40
269.9999999999995
 50
149.2303416227078
 51
180.0
  0
ARC
  5
1A2
  8
1
  6
CONTINUOUS
 62
     7
 10
4139.427859928172
 20
5168.999999999998
 30
0.0
 40
49.99999999999405
 50
329.230341622706
 51
0.0
  0
ARC
  5
1A3
  8
1
  6
CONTINUOUS
 62
     7
 10
3479.61824102569
 20
4905.291865201161
 30
0.0
 40
269.9999999999993
 50
325.9449040757286
 51
0.0
  0
ARC
  5
1A4
  8
1
  6
CONTINUOUS
 62
     7
 10
3479.61824102569
 20
5005.291865201161
 30
0.0
 40
270.0
 50
0.0
 51
30.76965837729224
  0
ARC
  5
1A5
  8
1
  6
CONTINUOUS
 62
     7
 10
3754.572140071843
 20
5168.999999999998
 30
0.0
 40
50.0
 50
180.0
 51
210.7696583772938
  0
ARC
  5
1A6
  8
1
  6
CONTINUOUS
 62
     7
 10
4247.74876387398
 20
4683.999999999998
 30
0.0
 40
5.0
 50
0.00000000002084
 51
90.0
  0
ARC
  5
1A7
  8
1
  6
CONTINUOUS
 62
     7
 10
4247.74876387398
 20
4683.999999999998
 30
0.0
 40
5.0
 50
0.00000000002084
 51
90.0
  0
ARC
  5
1A8
  8
1
  6
CONTINUOUS
 62
     7
 10
3646.251236126032
 20
4683.999999999998
 30
0.0
 40
5.0
 50
90.0
 51
179.9999999999792
  0
ARC
  5
1A9
  8
1
  6
CONTINUOUS
 62
     7
 10
4247.74876387398
 20
4683.999999999982
 30
0.0
 40
5.0
 50
0.00000000020844
 51
90.0
  0
ARC
  5
1AA
  8
1
  6
CONTINUOUS
 62
     2
 10
4980.572254754923
 20
4693.201360532517
 30
0.0
 40
10.99999999996855
 50
178.7171956186515
 51
236.7710273420445
  0
LINE
  5
1AB
  8
1
  6
CONTINUOUS
 62
     2
 10
5030.74876387398
 20
4683.999999999985
 30
0.0
 11
5030.74876387398
 21
4684.000000000004
 31
0.0
  0
ARC
  5
1AC
  8
1
  6
CONTINUOUS
 62
     7
 10
5025.748763873989
 20
4684.000000000001
 30
0.0
 40
5.0
 50
0.00000000003127
 51
90.00000000002085
  0
ARC
  5
1AD
  8
1
  6
CONTINUOUS
 62
     7
 10
5025.748763873989
 20
4684.000000000001
 30
0.0
 40
5.0
 50
0.00000000003127
 51
90.00000000002085
  0
ARC
  5
1AE
  8
1
  6
CONTINUOUS
 62
     7
 10
5025.748763873989
 20
4683.999999999985
 30
0.0
 40
5.0
 50
0.00000000020844
 51
90.0
  0
ARC
  5
1AF
  8
1
  6
CONTINUOUS
 62
     7
 10
5287.000000000007
 20
4370.0
 30
0.0
 40
30.00000000000182
 50
90.0
 51
180.0
  0
ARC
  5
1B0
  8
1
  6
CONTINUOUS
 62
     7
 10
5287.000000000007
 20
3980.000000000001
 30
0.0
 40
30.0
 50
180.0
 51
270.0
  0
ARC
  5
1B1
  8
1
  6
CONTINUOUS
 62
     7
 10
5677.000000000007
 20
3980.000000000001
 30
0.0
 40
30.0
 50
270.0
 51
0.0
  0
ARC
  5
1B2
  8
1
  6
CONTINUOUS
 62
     7
 10
5712.000000000005
 20
4776.993586411567
 30
0.0
 40
49.99999999999818
 50
180.0
 51
205.2209970201035
  0
ARC
  5
1B3
  8
1
  6
CONTINUOUS
 62
     7
 10
5639.935176318214
 20
4684.168493804018
 30
0.0
 40
58.00000000000513
 50
32.20647209907427
 51
56.16982506045229
  0
ARC
  5
1B4
  8
1
  6
CONTINUOUS
 62
     7
 10
6010.541416006215
 20
4917.610167684938
 30
0.0
 40
380.0000000000005
 50
209.552681152804
 51
212.206472099074
  0
ARC
  5
1B5
  8
1
  6
CONTINUOUS
 62
     7
 10
5665.847763108533
 20
4722.83219003418
 30
0.0
 40
11.45600403547537
 50
56.16982506045643
 51
143.0584199186632
  0
ARC
  5
1B6
  8
1
  6
CONTINUOUS
 62
     7
 10
5592.751669185337
 20
4777.797285570558
 30
0.0
 40
79.99999999999996
 50
279.6499008725735
 51
323.0584199186607
  0
ARC
  5
1B7
  8
1
  6
CONTINUOUS
 62
     7
 10
5607.00000000004
 20
4694.000000000002
 30
0.0
 40
4.999999999991971
 50
99.64990087257664
 51
270.0
  0
ARC
  5
1B8
  8
1
  6
CONTINUOUS
 62
     2
 10
5639.935176318214
 20
4684.168493804018
 30
0.0
 40
61.00000000000512
 50
48.97054185728387
 51
56.16982506045169
  0
ARC
  5
1B9
  8
1
  6
CONTINUOUS
 62
     7
 10
6010.541416006215
 20
4917.610167684938
 30
0.0
 40
379.9999999999995
 50
157.9475439767162
 51
209.552681152804
  0
ARC
  5
1BA
  8
1
  6
CONTINUOUS
 62
     2
 10
5665.847763108533
 20
4722.83219003418
 30
0.0
 40
14.45600403549765
 50
56.16982506045303
 51
143.0584199186632
  0
ARC
  5
1BB
  8
1
  6
CONTINUOUS
 62
     2
 10
5592.751669185337
 20
4777.797285570558
 30
0.0
 40
77.00000000005772
 50
279.6499008725734
 51
323.0584199186607
  0
ARC
  5
1BC
  8
1
  6
CONTINUOUS
 62
     2
 10
5607.00000000004
 20
4694.000000000002
 30
0.0
 40
7.999999999934192
 50
99.64990087257638
 51
268.3091530910971
  0
ARC
  5
1BD
  8
1
  6
CONTINUOUS
 62
     7
 10
5656.999999999983
 20
4672.848105329863
 30
0.0
 40
50.00000000000819
 50
0.00000000000521
 51
15.25453395125297
  0
ARC
  5
1BE
  8
1
  6
CONTINUOUS
 62
     7
 10
5656.999999999983
 20
4672.848105329863
 30
0.0
 40
50.00000000000051
 50
15.25453395125297
 51
18.84674365446293
  0
ARC
  5
1BF
  8
1
  6
CONTINUOUS
 62
     2
 10
5567.664486786312
 20
4895.422339671899
 30
0.0
 40
194.0000000000002
 50
119.7569277635072
 51
207.9766263421184
  0
ARC
  5
1C0
  8
1
  6
CONTINUOUS
 62
     2
 10
5482.000000000007
 20
4849.91854088939
 30
0.0
 40
96.99999999999773
 50
207.9766263421185
 51
332.0233736578817
  0
ARC
  5
1C1
  8
1
  6
CONTINUOUS
 62
     2
 10
5396.335513213703
 20
4895.422339671899
 30
0.0
 40
194.0000000000003
 50
332.0233736578816
 51
60.04122167805897
  0
ARC
  5
1C2
  8
1
  6
CONTINUOUS
 62
     7
 10
4953.4585839938
 20
4917.610167684938
 30
0.0
 40
380.0000000000013
 50
325.3045593824766
 51
327.793527900926
  0
ARC
  5
1C3
  8
1
  6
CONTINUOUS
 62
     7
 10
5307.000000000032
 20
4672.848105329863
 30
0.0
 40
49.99999999999993
 50
145.304559382476
 51
161.1532563455367
  0
ARC
  5
1C4
  8
1
  6
CONTINUOUS
 62
     7
 10
5324.064823681801
 20
4684.168493804018
 30
0.0
 40
57.9999999999826
 50
123.8301749395477
 51
147.7935279009257
  0
ARC
  5
1C5
  8
1
  6
CONTINUOUS
 62
     7
 10
4953.4585839938
 20
4917.610167684938
 30
0.0
 40
380.000000000001
 50
327.793527900926
 51
330.447318847196
  0
ARC
  5
1C6
  8
1
  6
CONTINUOUS
 62
     7
 10
5298.152236891482
 20
4722.83219003418
 30
0.0
 40
11.45600403547555
 50
36.9415800813395
 51
123.8301749395473
  0
ARC
  5
1C7
  8
1
  6
CONTINUOUS
 62
     7
 10
5371.248330814678
 20
4777.797285570558
 30
0.0
 40
80.00000000000043
 50
216.9415800813389
 51
260.3500991274258
  0
ARC
  5
1C8
  8
1
  6
CONTINUOUS
 62
     7
 10
5356.999999999975
 20
4694.000000000002
 30
0.0
 40
4.999999999991815
 50
270.0
 51
80.35009912743364
  0
ARC
  5
1C9
  8
1
  6
CONTINUOUS
 62
     2
 10
5324.064823681801
 20
4684.168493804018
 30
0.0
 40
61.00000000000487
 50
123.8301749395483
 51
131.0294581427161
  0
ARC
  5
1CA
  8
1
  6
CONTINUOUS
 62
     2
 10
5298.152236891482
 20
4722.83219003418
 30
0.0
 40
14.45600403549946
 50
36.94158008133898
 51
123.83017493955
  0
ARC
  5
1CB
  8
1
  6
CONTINUOUS
 62
     2
 10
5371.248330814678
 20
4777.797285570558
 30
0.0
 40
77.00000000005838
 50
216.9415800813389
 51
260.3500991274259
  0
ARC
  5
1CC
  8
1
  6
CONTINUOUS
 62
     2
 10
5356.999999999975
 20
4694.000000000002
 30
0.0
 40
7.999999999934177
 50
271.6908469088964
 51
80.35009912743004
  0
ARC
  5
1CD
  8
1
  6
CONTINUOUS
 62
     7
 10
5307.000000000032
 20
4672.848105329863
 30
0.0
 40
50.00000000000051
 50
164.745466048747
 51
179.9999999999948
  0
ARC
  5
1CE
  8
1
  6
CONTINUOUS
 62
     7
 10
5307.000000000032
 20
4672.848105329863
 30
0.0
 40
50.00000000000111
 50
161.1532563455367
 51
164.745466048747
  0
LINE
  5
1CF
  8
1
  6
CONTINUOUS
 62
     7
 10
4419.251236126032
 20
4684.000000000004
 30
0.0
 11
4419.251236126032
 21
4683.999999999985
 31
0.0
  0
ARC
  5
1D0
  8
1
  6
CONTINUOUS
 62
     7
 10
4424.251236126023
 20
4683.999999999985
 30
0.0
 40
5.0
 50
90.0
 51
179.9999999997916
  0
ARC
  5
1D1
  8
1
  6
CONTINUOUS
 62
     2
 10
5135.033506393977
 20
4684.557667381653
 30
0.0
 40
165.6971476925457
 50
160.3812317575183
 51
176.9245005368234
  0
ARC
  5
1D2
  8
1
  6
CONTINUOUS
 62
     7
 10
5104.181979287711
 20
4698.70049026921
 30
0.0
 40
129.9999999991414
 50
162.8011095015197
 51
182.155054130365
  0
ARC
  5
1D3
  8
1
  6
CONTINUOUS
 62
     2
 10
4469.427745245091
 20
4693.201360532517
 30
0.0
 40
10.99999999996935
 50
303.2289726579555
 51
1.28280438134845
  0
LINE
  5
1D4
  8
1
  6
CONTINUOUS
 62
     7
 10
4419.251236126032
 20
4684.000000000004
 30
0.0
 11
4419.251236126032
 21
4683.999999999985
 31
0.0
  0
ARC
  5
1D5
  8
1
  6
CONTINUOUS
 62
     7
 10
4424.251236126024
 20
4684.000000000001
 30
0.0
 40
5.000000000000909
 50
89.99999999997915
 51
179.9999999999687
  0
ARC
  5
1D6
  8
1
  6
CONTINUOUS
 62
     7
 10
4424.251236126024
 20
4684.000000000001
 30
0.0
 40
5.000000000000909
 50
89.99999999997915
 51
179.9999999999687
  0
ARC
  5
1D7
  8
1
  6
CONTINUOUS
 62
     7
 10
4424.251236126023
 20
4683.999999999985
 30
0.0
 40
5.0
 50
90.0
 51
179.9999999997916
  0
ARC
  5
1D8
  8
1
  6
CONTINUOUS
 62
     7
 10
4314.966493606037
 20
4684.557667381653
 30
0.0
 40
165.6971476925448
 50
3.07549946317662
 51
19.6187682424818
  0
ARC
  5
1D9
  8
1
  6
CONTINUOUS
 62
     2
 10
4345.818020712302
 20
4698.70049026921
 30
0.0
 40
129.9999999991554
 50
357.844945869635
 51
17.1988904984803
  0
ARC
  5
1DA
  8
1
  6
CONTINUOUS
 62
     2
 10
4725.000000000007
 20
4706.672890760743
 30
0.0
 40
33.51927400699232
 50
44.68008236370338
 51
90.0
  0
ARC
  5
1DB
  8
1
  6
CONTINUOUS
 62
     2
 10
4875.399500270297
 20
4855.402153499761
 30
0.0
 40
177.9999999999989
 50
224.6800823637022
 51
245.4089859811355
  0
ARC
  5
1DC
  8
1
  6
CONTINUOUS
 62
     2
 10
4799.246212024609
 20
4688.999999999985
 30
0.0
 40
4.999999999985448
 50
270.0
 51
65.40898598113172
  0
ARC
  5
1DD
  8
1
  6
CONTINUOUS
 62
     7
 10
4725.000000000007
 20
4706.672890760743
 30
0.0
 40
30.46724120895896
 50
44.7661822202049
 51
90.0
  0
ARC
  5
1DE
  8
1
  6
CONTINUOUS
 62
     7
 10
4875.848875137747
 20
4856.295567707204
 30
0.0
 40
182.0000000000013
 50
224.7661822202049
 51
243.9414326259495
  0
ARC
  5
1DF
  8
1
  6
CONTINUOUS
 62
     7
 10
4795.019577872762
 20
4690.999999999985
 30
0.0
 40
2.0
 50
270.0
 51
63.9414326259406
  0
ARC
  5
1E0
  8
1
  6
CONTINUOUS
 62
     2
 10
4725.000000000007
 20
4706.672890760743
 30
0.0
 40
33.5192740069906
 50
90.0
 51
135.3199176362977
  0
ARC
  5
1E1
  8
1
  6
CONTINUOUS
 62
     2
 10
4574.600499729717
 20
4855.402153499761
 30
0.0
 40
177.9999999999997
 50
294.5910140188645
 51
315.3199176362978
  0
ARC
  5
1E2
  8
1
  6
CONTINUOUS
 62
     2
 10
4650.753787975405
 20
4688.999999999985
 30
0.0
 40
4.999999999983325
 50
114.5910140188778
 51
270.0
  0
ARC
  5
1E3
  8
1
  6
CONTINUOUS
 62
     7
 10
4725.000000000007
 20
4706.672890760743
 30
0.0
 40
30.46724120895306
 50
90.0
 51
135.2338177797951
  0
ARC
  5
1E4
  8
1
  6
CONTINUOUS
 62
     7
 10
4574.151124862266
 20
4856.295567707204
 30
0.0
 40
181.9999999999988
 50
296.0585673740508
 51
315.2338177797953
  0
ARC
  5
1E5
  8
1
  6
CONTINUOUS
 62
     7
 10
4654.980422127252
 20
4690.999999999985
 30
0.0
 40
1.999999999999689
 50
116.0585673740594
 51
270.0
  0
ARC
  5
1E6
  8
1
  6
CONTINUOUS
 62
     2
 10
5625.870493613728
 20
5286.26631236905
 30
0.0
 40
52.99999999994861
 50
95.7461556280486
 51
115.7582577364919
  0
ARC
  5
1E7
  8
1
  6
CONTINUOUS
 62
     2
 10
5209.266312369078
 20
5415.129506386259
 30
0.0
 40
52.9999999999477
 50
5.74615562804869
 51
25.75825773649188
  0
ARC
  5
1E8
  8
1
  6
CONTINUOUS
 62
     2
 10
5338.129506386287
 20
5831.733687630909
 30
0.0
 40
52.9999999999477
 50
275.7461556280487
 51
295.7582577364906
  0
ARC
  5
1E9
  8
1
  6
CONTINUOUS
 62
     2
 10
5677.000000000007
 20
5364.000000000009
 30
0.0
 40
24.99999999999909
 50
270.0
 51
0.00000000000208
  0
ARC
  5
1EA
  8
1
  6
CONTINUOUS
 62
     2
 10
5287.000000000036
 20
5363.999999999981
 30
0.0
 40
24.99999999999909
 50
180.0
 51
270.0000000000021
  0
ARC
  5
1EB
  8
1
  6
CONTINUOUS
 62
     2
 10
5287.000000000009
 20
5753.999999999951
 30
0.0
 40
24.99999999999727
 50
90.00000000000418
 51
180.0000000000041
  0
ARC
  5
1EC
  8
1
  6
CONTINUOUS
 62
     2
 10
5482.00000000004
 20
5558.999999999951
 30
0.0
 40
259.9999999999575
 50
302.2042275040572
 51
327.7957724959696
  0
ARC
  5
1ED
  8
1
  6
CONTINUOUS
 62
     2
 10
5481.999999999978
 20
5558.999999999948
 30
0.0
 40
259.999999999958
 50
212.2042275040574
 51
237.7957724959698
  0
ARC
  5
1EE
  8
1
  6
CONTINUOUS
 62
     2
 10
5481.999999999976
 20
5559.000000000009
 30
0.0
 40
259.999999999958
 50
122.2042275040574
 51
147.7957724959698
  0
ARC
  5
1EF
  8
1
  6
CONTINUOUS
 62
     2
 10
5754.733687630934
 20
5415.129506386255
 30
0.0
 40
52.99999999994821
 50
154.2417422635081
 51
174.2538443719513
  0
ARC
  5
1F0
  8
1
  6
CONTINUOUS
 62
     2
 10
5338.129506386284
 20
5286.266312369054
 30
0.0
 40
52.99999999994863
 50
64.24174226350942
 51
84.2538443719525
  0
ARC
  5
1F1
  8
1
  6
CONTINUOUS
 62
     2
 10
5209.266312369081
 20
5702.870493613703
 30
0.0
 40
52.99999999994945
 50
334.2417422635099
 51
354.2538443719513
  0
ARC
  5
1F2
  8
1
  6
CONTINUOUS
 62
     7
 10
5482.00000000002
 20
5558.999999999968
 30
0.0
 40
254.9999999999828
 50
298.0724869358796
 51
331.9275130641459
  0
ARC
  5
1F3
  8
1
  6
CONTINUOUS
 62
     7
 10
5481.999999999996
 20
5558.999999999968
 30
0.0
 40
254.9999999999836
 50
208.0724869358795
 51
241.9275130641458
  0
ARC
  5
1F4
  8
1
  6
CONTINUOUS
 62
     7
 10
5481.999999999994
 20
5558.999999999991
 30
0.0
 40
254.9999999999827
 50
118.0724869358791
 51
151.9275130641456
  0
ARC
  5
1F5
  8
1
  6
CONTINUOUS
 62
     2
 10
5625.87049361373
 20
5831.733687630906
 30
0.0
 40
52.99999999994742
 50
244.2417422635099
 51
264.2538443719513
  0
ARC
  5
1F6
  8
1
  6
CONTINUOUS
 62
     2
 10
5754.733687630936
 20
5702.8704936137
 30
0.0
 40
52.9999999999468
 50
185.7461556280488
 51
205.7582577364901
  0
ARC
  5
1F7
  8
1
  6
CONTINUOUS
 62
     2
 10
5482.000000000036
 20
5559.000000000011
 30
0.0
 40
259.9999999999587
 50
32.20422750405726
 51
57.79577249596994
  0
ARC
  5
1F8
  8
1
  6
CONTINUOUS
 62
     7
 10
5482.000000000018
 20
5558.999999999993
 30
0.0
 40
254.9999999999831
 50
28.0724869358793
 51
61.92751306414594
  0
ARC
  5
1F9
  8
1
  6
CONTINUOUS
 62
     2
 10
5656.949903641793
 20
5507.277729274875
 30
0.0
 40
325.9999999999929
 50
127.7501363437823
 51
133.4489104289865
  0
ARC
  5
1FA
  8
1
  6
CONTINUOUS
 62
     2
 10
5533.722270725081
 20
5734.536175217716
 30
0.0
 40
325.9999999999936
 50
217.7501363437822
 51
223.4360735859047
  0
ARC
  5
1FB
  8
1
  6
CONTINUOUS
 62
     2
 10
5306.46382478224
 20
5610.722270725083
 30
0.0
 40
325.9999999999927
 50
307.7501363437817
 51
313.4360735859051
  0
ARC
  5
1FC
  8
1
  6
CONTINUOUS
 62
     2
 10
5430.277729274872
 20
5383.463824782241
 30
0.0
 40
325.9999999999923
 50
37.75013634378215
 51
43.43607358590493
  0
ARC
  5
1FD
  8
1
  6
CONTINUOUS
 62
     2
 10
5656.949903641791
 20
5610.722270725082
 30
0.0
 40
325.9999999999926
 50
226.5639264140964
 51
232.2498636562181
  0
ARC
  5
1FE
  8
1
  6
CONTINUOUS
 62
     2
 10
5481.706864211842
 20
5384.69978727316
 30
0.0
 40
40.00000000000129
 50
232.5181428454131
 51
307.4818571545858
  0
ARC
  5
1FF
  8
1
  6
CONTINUOUS
 62
     2
 10
5307.699787273156
 20
5559.293135788113
 30
0.0
 40
39.99999999999858
 50
142.5181428454118
 51
217.4818571545902
  0
ARC
  5
200
  8
1
  6
CONTINUOUS
 62
     2
 10
5533.722270725079
 20
5384.050096358162
 30
0.0
 40
325.9999999999926
 50
136.5639264140961
 51
142.2498636562175
  0
ARC
  5
201
  8
1
  6
CONTINUOUS
 62
     2
 10
5656.300212726796
 20
5558.706864211844
 30
0.0
 40
39.99999999999858
 50
322.5181428454118
 51
37.48185715458921
  0
ARC
  5
202
  8
1
  6
CONTINUOUS
 62
     2
 10
5430.277729274873
 20
5733.949903641795
 30
0.0
 40
325.9999999999919
 50
316.563926414096
 51
322.2498636562176
  0
ARC
  5
203
  8
1
  6
CONTINUOUS
 62
     2
 10
5306.46382478224
 20
5507.277729274873
 30
0.0
 40
325.9999999999933
 50
46.55108957101424
 51
52.24986365621817
  0
ARC
  5
204
  8
1
  6
CONTINUOUS
 62
     2
 10
5481.706864211842
 20
5733.300212726798
 30
0.0
 40
39.99999999999985
 50
52.51814284541159
 51
127.4818571545884
  0
ARC
  5
205
  8
1
  6
CONTINUOUS
 62
     2
 10
5676.999999999977
 20
5753.999999999979
 30
0.0
 40
24.99999999999909
 50
0.0
 51
90.00000000000418
  0
ARC
  5
206
  8
1
  6
CONTINUOUS
 62
     2
 10
5677.000000000007
 20
5753.999999999947
 30
0.0
 40
25.0
 50
359.9999999999979
 51
90.0
  0
ARC
  5
207
  8
1
  6
CONTINUOUS
 62
     7
 10
4953.458583993798
 20
4917.610167684938
 30
0.0
 40
380.0000000000005
 50
330.447318847196
 51
22.05245602328383
  0
ARC
  5
208
  8
1
  6
CONTINUOUS
 62
     7
 10
5352.00000000001
 20
5079.055947214038
 30
0.0
 40
50.00000000000182
 50
180.0000000000208
 51
202.0524560232838
  0
ARC
  5
209
  8
1
  6
CONTINUOUS
 62
     2
 10
3947.000000000007
 20
4706.672890760739
 30
0.0
 40
33.519274006992
 50
44.68008236370174
 51
90.0
  0
ARC
  5
20A
  8
1
  6
CONTINUOUS
 62
     2
 10
4097.399500270297
 20
4855.402153499757
 30
0.0
 40
177.9999999999996
 50
224.6800823637024
 51
245.4089859811355
  0
ARC
  5
20B
  8
1
  6
CONTINUOUS
 62
     2
 10
4021.246212024609
 20
4688.999999999982
 30
0.0
 40
4.999999999985448
 50
270.0
 51
65.40898598113172
  0
ARC
  5
20C
  8
1
  6
CONTINUOUS
 62
     7
 10
3947.000000000007
 20
4706.672890760739
 30
0.0
 40
30.46724120895928
 50
44.76618222020431
 51
90.0
  0
ARC
  5
20D
  8
1
  6
CONTINUOUS
 62
     7
 10
4097.848875137747
 20
4856.295567707201
 30
0.0
 40
182.000000000002
 50
224.7661822202051
 51
243.9414326259496
  0
ARC
  5
20E
  8
1
  6
CONTINUOUS
 62
     7
 10
4017.019577872762
 20
4690.999999999982
 30
0.0
 40
2.0
 50
270.0
 51
63.9414326259406
  0
ARC
  5
20F
  8
1
  6
CONTINUOUS
 62
     2
 10
3947.000000000007
 20
4706.672890760739
 30
0.0
 40
33.5192740069906
 50
90.0
 51
135.3199176362983
  0
ARC
  5
210
  8
1
  6
CONTINUOUS
 62
     2
 10
3796.600499729717
 20
4855.402153499757
 30
0.0
 40
177.9999999999999
 50
294.5910140188647
 51
315.3199176362975
  0
ARC
  5
211
  8
1
  6
CONTINUOUS
 62
     2
 10
3872.753787975405
 20
4688.999999999982
 30
0.0
 40
4.999999999982947
 50
114.5910140188683
 51
270.0
  0
ARC
  5
212
  8
1
  6
CONTINUOUS
 62
     7
 10
3947.000000000007
 20
4706.672890760739
 30
0.0
 40
30.46724120895306
 50
90.0
 51
135.2338177797951
  0
ARC
  5
213
  8
1
  6
CONTINUOUS
 62
     7
 10
3796.151124862266
 20
4856.295567707201
 30
0.0
 40
182.0000000000007
 50
296.0585673740507
 51
315.2338177797951
  0
ARC
  5
214
  8
1
  6
CONTINUOUS
 62
     7
 10
3876.980422127252
 20
4690.999999999982
 30
0.0
 40
1.999999999999889
 50
116.0585673740711
 51
270.0
  0
ARC
  5
215
  8
1
  6
CONTINUOUS
 62
     7
 10
5482.000000000006
 20
4175.000000000015
 30
0.0
 40
159.9999999999972
 50
37.54432510382526
 51
52.45567489617181
  0
ARC
  5
216
  8
1
  6
CONTINUOUS
 62
     7
 10
5482.000000000006
 20
4175.000000000015
 30
0.0
 40
159.9999999999972
 50
36.20137264928561
 51
37.54432510382526
  0
ARC
  5
217
  8
1
  6
CONTINUOUS
 62
     7
 10
5482.000000000006
 20
4175.000000000015
 30
0.0
 40
159.9999999999967
 50
53.79862735071185
 51
36.20137264928561
  0
ARC
  5
218
  8
1
  6
CONTINUOUS
 62
     7
 10
5482.000000000006
 20
4175.000000000015
 30
0.0
 40
159.9999999999955
 50
52.45567489617181
 51
53.79862735071185
  0
CIRCLE
  5
219
  8
1
  6
LONG_DASHED
 62
     2
 10
5482.000000000007
 20
4175.0
 30
0.0
 40
179.9999999999945
  0
CIRCLE
  5
21A
  8
1
  6
CONTINUOUS
 62
     7
 10
5482.000000000006
 20
4175.000000000015
 30
0.0
 40
44.99999999999727
  0
CIRCLE
  5
21B
  8
1
  6
CONTINUOUS
 62
     2
 10
5482.000000000006
 20
4175.000000000015
 30
0.0
 40
109.9999999999973
  0
CIRCLE
  5
21C
  8
1
  6
CONTINUOUS
 62
     7
 10
5481.999999999992
 20
5558.999999999994
 30
0.0
 40
44.99999999999988
  0
CIRCLE
  5
21D
  8
1
  6
DASHED
 62
     2
 10
5481.999999999992
 20
5558.999999999994
 30
0.0
 40
179.9999999999982
  0
CIRCLE
  5
21E
  8
1
  6
DASHED
 62
     2
 10
5481.999999999992
 20
5558.999999999994
 30
0.0
 40
160.0
  0
CIRCLE
  5
21F
  8
1
  6
CONTINUOUS
 62
     7
 10
5679.500000000006
 20
5756.499999999979
 30
0.0
 40
10.99999999999993
  0
CIRCLE
  5
220
  8
1
  6
CONTINUOUS
 62
     7
 10
5284.50000000001
 20
5361.499999999977
 30
0.0
 40
10.99999999999928
  0
CIRCLE
  5
221
  8
1
  6
CONTINUOUS
 62
     7
 10
5679.500000000006
 20
5361.499999999977
 30
0.0
 40
10.99999999999993
  0
CIRCLE
  5
222
  8
1
  6
CONTINUOUS
 62
     7
 10
5284.500000000009
 20
5756.499999999979
 30
0.0
 40
11.00000000000057
  0
CIRCLE
  5
223
  8
1
  6
CONTINUOUS
 62
     7
 10
5679.500000000006
 20
3977.5
 30
0.0
 40
10.99999999999961
  0
CIRCLE
  5
224
  8
1
  6
CONTINUOUS
 62
     7
 10
5284.500000000008
 20
3977.5
 30
0.0
 40
10.99999999999961
  0
CIRCLE
  5
225
  8
1
  6
CONTINUOUS
 62
     7
 10
5679.500000000006
 20
4372.500000000009
 30
0.0
 40
11.00000000000057
  0
CIRCLE
  5
226
  8
1
  6
CONTINUOUS
 62
     7
 10
5284.500000000008
 20
4372.500000000009
 30
0.0
 40
11.00000000000057
  0
POLYLINE
  5
227
  8
1
  6
CONTINUOUS
 62
     7
 66
     1
 10
0.0
 20
0.0
 30
0.0
  0
VERTEX
  5
26D
  8
1
  6
CONTINUOUS
 62
     7
 10
3646.251236126032
 20
4688.999999999998
 30
0.0
  0
VERTEX
  5
26E
  8
1
  6
CONTINUOUS
 62
     7
 10
3641.251236126032
 20
4684.0
 30
0.0
  0
VERTEX
  5
26F
  8
1
  6
CONTINUOUS
 62
     7
 10
3641.228355337253
 20
4648.999999999998
 30
0.0
  0
VERTEX
  5
270
  8
1
  6
CONTINUOUS
 62
     7
 10
3787.000000000007
 20
4648.999999999998
 30
0.0
  0
VERTEX
  5
271
  8
1
  6
CONTINUOUS
 62
     7
 10
3787.000000000007
 20
4905.291865201161
 30
0.0
  0
SEQEND
  5
272
  8
1
  6
CONTINUOUS
 62
     7
  0
POLYLINE
  5
228
  8
1
  6
CONTINUOUS
 62
     7
 66
     1
 10
0.0
 20
0.0
 30
0.0
  0
VERTEX
  5
273
  8
1
  6
CONTINUOUS
 62
     7
 10
3902.000000000007
 20
5198.999999999998
 30
0.0
  0
VERTEX
  5
274
  8
1
  6
CONTINUOUS
 62
     7
 10
3704.572140071843
 20
5198.999999999998
 30
0.0
  0
SEQEND
  5
275
  8
1
  6
CONTINUOUS
 62
     7
  0
POLYLINE
  5
229
  8
1
  6
CONTINUOUS
 62
     7
 66
     1
 10
0.0
 20
0.0
 30
0.0
  0
VERTEX
  5
276
  8
1
  6
CONTINUOUS
 62
     7
 10
3678.228355337251
 20
4648.999999999998
 30
0.0
  0
VERTEX
  5
277
  8
1
  6
CONTINUOUS
 62
     7
 10
3787.000000000007
 20
4648.999999999998
 30
0.0
  0
VERTEX
  5
278
  8
1
  6
CONTINUOUS
 62
     7
 10
3787.000000000007
 20
5068.999999999998
 30
0.0
  0
SEQEND
  5
279
  8
1
  6
CONTINUOUS
 62
     7
  0
POLYLINE
  5
22A
  8
1
  6
CONTINUOUS
 62
     2
 66
     1
 10
0.0
 20
0.0
 30
0.0
  0
VERTEX
  5
27A
  8
1
  6
CONTINUOUS
 62
     2
 10
4142.33203435597
 20
5198.999999999998
 30
0.0
  0
VERTEX
  5
27B
  8
1
  6
CONTINUOUS
 62
     2
 10
4137.332034355972
 20
5165.999999999998
 30
0.0
  0
VERTEX
  5
27C
  8
1
  6
CONTINUOUS
 62
     2
 10
4147.132034355971
 20
5156.228718707887
 30
0.0
  0
VERTEX
  5
27D
  8
1
  6
CONTINUOUS
 62
     2
 10
4151.93203435597
 20
5158.999999999998
 30
0.0
  0
VERTEX
  5
27E
  8
1
  6
CONTINUOUS
 62
     2
 10
4151.93203435597
 20
5198.999999999998
 30
0.0
  0
SEQEND
  5
27F
  8
1
  6
CONTINUOUS
 62
     2
  0
POLYLINE
  5
22B
  8
1
  6
LONG_DASHED
 62
     2
 66
     1
 10
0.0
 20
0.0
 30
0.0
  0
VERTEX
  5
280
  8
1
  6
LONG_DASHED
 62
     2
 10
3902.000000000007
 20
5183.999999999998
 30
0.0
  0
VERTEX
  5
281
  8
1
  6
LONG_DASHED
 62
     2
 10
3902.000000000007
 20
5198.999999999998
 30
0.0
  0
SEQEND
  5
282
  8
1
  6
LONG_DASHED
 62
     2
  0
POLYLINE
  5
22C
  8
1
  6
CONTINUOUS
 62
     2
 66
     1
 10
0.0
 20
0.0
 30
0.0
  0
VERTEX
  5
283
  8
1
  6
CONTINUOUS
 62
     2
 10
4107.000000000007
 20
5180.999999999998
 30
0.0
  0
VERTEX
  5
284
  8
1
  6
CONTINUOUS
 62
     2
 10
4107.000000000007
 20
4648.999999999998
 30
0.0
  0
SEQEND
  5
285
  8
1
  6
CONTINUOUS
 62
     2
  0
POLYLINE
  5
22D
  8
1
  6
CONTINUOUS
 62
     2
 66
     1
 10
0.0
 20
0.0
 30
0.0
  0
VERTEX
  5
286
  8
1
  6
CONTINUOUS
 62
     2
 10
4174.972966856458
 20
5168.999999999998
 30
0.0
  0
VERTEX
  5
287
  8
1
  6
CONTINUOUS
 62
     2
 10
4174.972966856458
 20
5198.999999999998
 30
0.0
  0
SEQEND
  5
288
  8
1
  6
CONTINUOUS
 62
     2
  0
POLYLINE
  5
22E
  8
1
  6
CONTINUOUS
 62
     2
 66
     1
 10
0.0
 20
0.0
 30
0.0
  0
VERTEX
  5
289
  8
1
  6
CONTINUOUS
 62
     2
 10
4197.771644662766
 20
4663.478511269525
 30
0.0
  0
VERTEX
  5
28A
  8
1
  6
CONTINUOUS
 62
     2
 10
4172.528470189525
 20
4708.032571158199
 30
0.0
  0
VERTEX
  5
28B
  8
1
  6
CONTINUOUS
 62
     2
 10
4157.473810510959
 20
4739.349348047312
 30
0.0
  0
VERTEX
  5
28C
  8
1
  6
CONTINUOUS
 62
     2
 10
4137.871384601387
 20
4792.592445404116
 30
0.0
  0
VERTEX
  5
28D
  8
1
  6
CONTINUOUS
 62
     2
 10
4123.93986117066
 20
4803.193810857182
 30
0.0
  0
VERTEX
  5
28E
  8
1
  6
CONTINUOUS
 62
     2
 10
4123.380773045818
 20
4850.805349507835
 30
0.0
  0
VERTEX
  5
28F
  8
1
  6
CONTINUOUS
 62
     2
 10
4112.333443502414
 20
4681.006410156255
 30
0.0
  0
SEQEND
  5
290
  8
1
  6
CONTINUOUS
 62
     2
  0
POLYLINE
  5
22F
  8
1
  6
CONTINUOUS
 62
     7
 66
     1
 10
0.0
 20
0.0
 30
0.0
  0
VERTEX
  5
291
  8
1
  6
CONTINUOUS
 62
     7
 10
4424.228355337275
 20
4689.000000000002
 30
0.0
  0
VERTEX
  5
292
  8
1
  6
CONTINUOUS
 62
     7
 10
4419.228355337275
 20
4684.000000000004
 30
0.0
  0
VERTEX
  5
293
  8
1
  6
CONTINUOUS
 62
     7
 10
4419.205474548496
 20
4649.000000000002
 30
0.0
  0
VERTEX
  5
294
  8
1
  6
CONTINUOUS
 62
     7
 10
4565.000000000007
 20
4649.000000000002
 30
0.0
  0
VERTEX
  5
295
  8
1
  6
CONTINUOUS
 62
     7
 10
4565.000000000007
 20
4905.291865201165
 30
0.0
  0
SEQEND
  5
296
  8
1
  6
CONTINUOUS
 62
     7
  0
POLYLINE
  5
230
  8
1
  6
CONTINUOUS
 62
     7
 66
     1
 10
0.0
 20
0.0
 30
0.0
  0
VERTEX
  5
297
  8
1
  6
CONTINUOUS
 62
     7
 10
4680.000000000007
 20
5099.000000000002
 30
0.0
  0
VERTEX
  5
298
  8
1
  6
CONTINUOUS
 62
     7
 10
4482.572140071843
 20
5099.000000000002
 30
0.0
  0
SEQEND
  5
299
  8
1
  6
CONTINUOUS
 62
     7
  0
POLYLINE
  5
231
  8
1
  6
CONTINUOUS
 62
     7
 66
     1
 10
0.0
 20
0.0
 30
0.0
  0
VERTEX
  5
29A
  8
1
  6
CONTINUOUS
 62
     7
 10
4456.228355337251
 20
4649.000000000002
 30
0.0
  0
VERTEX
  5
29B
  8
1
  6
CONTINUOUS
 62
     7
 10
4565.000000000007
 20
4649.000000000002
 30
0.0
  0
VERTEX
  5
29C
  8
1
  6
CONTINUOUS
 62
     7
 10
4565.000000000007
 20
5019.000000000002
 30
0.0
  0
SEQEND
  5
29D
  8
1
  6
CONTINUOUS
 62
     7
  0
POLYLINE
  5
232
  8
1
  6
CONTINUOUS
 62
     2
 66
     1
 10
0.0
 20
0.0
 30
0.0
  0
VERTEX
  5
29E
  8
1
  6
CONTINUOUS
 62
     2
 10
4920.33203435597
 20
5099.000000000002
 30
0.0
  0
VERTEX
  5
29F
  8
1
  6
CONTINUOUS
 62
     2
 10
4915.332034355972
 20
5066.000000000002
 30
0.0
  0
VERTEX
  5
2A0
  8
1
  6
CONTINUOUS
 62
     2
 10
4925.132034355971
 20
5056.228718707891
 30
0.0
  0
VERTEX
  5
2A1
  8
1
  6
CONTINUOUS
 62
     2
 10
4929.93203435597
 20
5059.000000000002
 30
0.0
  0
VERTEX
  5
2A2
  8
1
  6
CONTINUOUS
 62
     2
 10
4929.93203435597
 20
5099.000000000002
 30
0.0
  0
SEQEND
  5
2A3
  8
1
  6
CONTINUOUS
 62
     2
  0
POLYLINE
  5
233
  8
1
  6
CONTINUOUS
 62
     2
 66
     1
 10
0.0
 20
0.0
 30
0.0
  0
VERTEX
  5
2A4
  8
1
  6
CONTINUOUS
 62
     2
 10
4680.000000000007
 20
5084.000000000002
 30
0.0
  0
VERTEX
  5
2A5
  8
1
  6
CONTINUOUS
 62
     2
 10
4680.000000000007
 20
5099.000000000002
 30
0.0
  0
SEQEND
  5
2A6
  8
1
  6
CONTINUOUS
 62
     2
  0
POLYLINE
  5
234
  8
1
  6
CONTINUOUS
 62
     2
 66
     1
 10
0.0
 20
0.0
 30
0.0
  0
VERTEX
  5
2A7
  8
1
  6
CONTINUOUS
 62
     2
 10
4885.000000000007
 20
5131.000000000002
 30
0.0
  0
VERTEX
  5
2A8
  8
1
  6
CONTINUOUS
 62
     2
 10
4885.000000000007
 20
4649.000000000002
 30
0.0
  0
SEQEND
  5
2A9
  8
1
  6
CONTINUOUS
 62
     2
  0
POLYLINE
  5
235
  8
1
  6
CONTINUOUS
 62
     2
 66
     1
 10
0.0
 20
0.0
 30
0.0
  0
VERTEX
  5
2AA
  8
1
  6
CONTINUOUS
 62
     2
 10
4952.972966856458
 20
5069.000000000002
 30
0.0
  0
VERTEX
  5
2AB
  8
1
  6
CONTINUOUS
 62
     2
 10
4952.972966856458
 20
5099.000000000002
 30
0.0
  0
SEQEND
  5
2AC
  8
1
  6
CONTINUOUS
 62
     2
  0
POLYLINE
  5
236
  8
1
  6
CONTINUOUS
 62
     2
 66
     1
 10
0.0
 20
0.0
 30
0.0
  0
VERTEX
  5
2AD
  8
1
  6
CONTINUOUS
 62
     2
 10
4474.228355337244
 20
4679.000000000002
 30
0.0
  0
VERTEX
  5
2AE
  8
1
  6
CONTINUOUS
 62
     2
 10
4466.104082871343
 20
4679.000000000002
 30
0.0
  0
VERTEX
  5
2AF
  8
1
  6
CONTINUOUS
 62
     2
 10
4456.228355337251
 20
4689.000000000002
 30
0.0
  0
VERTEX
  5
2B0
  8
1
  6
CONTINUOUS
 62
     2
 10
4459.228355337255
 20
4649.000000000002
 30
0.0
  0
SEQEND
  5
2B1
  8
1
  6
CONTINUOUS
 62
     2
  0
POLYLINE
  5
237
  8
1
  6
CONTINUOUS
 62
     2
 66
     1
 10
0.0
 20
0.0
 30
0.0
  0
VERTEX
  5
2B2
  8
1
  6
CONTINUOUS
 62
     2
 10
4975.771644662766
 20
4663.478511269529
 30
0.0
  0
VERTEX
  5
2B3
  8
1
  6
CONTINUOUS
 62
     2
 10
4950.528470189525
 20
4708.032571158203
 30
0.0
  0
VERTEX
  5
2B4
  8
1
  6
CONTINUOUS
 62
     2
 10
4935.473810510959
 20
4739.349348047315
 30
0.0
  0
VERTEX
  5
2B5
  8
1
  6
CONTINUOUS
 62
     2
 10
4915.871384601387
 20
4792.59244540412
 30
0.0
  0
VERTEX
  5
2B6
  8
1
  6
CONTINUOUS
 62
     2
 10
4901.93986117066
 20
4803.193810857186
 30
0.0
  0
VERTEX
  5
2B7
  8
1
  6
CONTINUOUS
 62
     2
 10
4901.380773045818
 20
4850.805349507838
 30
0.0
  0
VERTEX
  5
2B8
  8
1
  6
CONTINUOUS
 62
     2
 10
4890.333443502414
 20
4681.006410156258
 30
0.0
  0
SEQEND
  5
2B9
  8
1
  6
CONTINUOUS
 62
     2
  0
POLYLINE
  5
238
  8
1
  6
CONTINUOUS
 62
     2
 66
     1
 10
0.0
 20
0.0
 30
0.0
  0
VERTEX
  5
2BA
  8
1
  6
CONTINUOUS
 62
     2
 10
5312.00000000004
 20
4679.000000000002
 30
0.0
  0
VERTEX
  5
2BB
  8
1
  6
CONTINUOUS
 62
     2
 10
5303.875727534141
 20
4679.000000000002
 30
0.0
  0
VERTEX
  5
2BC
  8
1
  6
CONTINUOUS
 62
     2
 10
5297.000000000051
 20
4689.000000000002
 30
0.0
  0
VERTEX
  5
2BD
  8
1
  6
CONTINUOUS
 62
     2
 10
5297.000000000051
 20
4649.000000000002
 30
0.0
  0
SEQEND
  5
2BE
  8
1
  6
CONTINUOUS
 62
     2
  0
POLYLINE
  5
239
  8
1
  6
CONTINUOUS
 62
     2
 66
     1
 10
0.0
 20
0.0
 30
0.0
  0
VERTEX
  5
2BF
  8
1
  6
CONTINUOUS
 62
     2
 10
5257.00000000002
 20
4672.848105329867
 30
0.0
  0
VERTEX
  5
2C0
  8
1
  6
CONTINUOUS
 62
     2
 10
5257.000000000051
 20
4649.000000000002
 30
0.0
  0
VERTEX
  5
2C1
  8
1
  6
CONTINUOUS
 62
     2
 10
5322.000000000007
 20
4649.000000000002
 30
0.0
  0
VERTEX
  5
2C2
  8
1
  6
CONTINUOUS
 62
     2
 10
5322.000000000007
 20
5019.000000000002
 30
0.0
  0
SEQEND
  5
2C3
  8
1
  6
CONTINUOUS
 62
     2
  0
POLYLINE
  5
23A
  8
1
  6
CONTINUOUS
 62
     2
 66
     1
 10
0.0
 20
0.0
 30
0.0
  0
VERTEX
  5
2C4
  8
1
  6
CONTINUOUS
 62
     2
 10
5372.000000000007
 20
5069.000000000002
 30
0.0
  0
VERTEX
  5
2C5
  8
1
  6
CONTINUOUS
 62
     2
 10
5432.000000000007
 20
5069.000000000002
 30
0.0
  0
SEQEND
  5
2C6
  8
1
  6
CONTINUOUS
 62
     2
  0
ARC
  5
23B
  8
1
  6
CONTINUOUS
 62
     7
 10
3697.004952173367
 20
4736.863786139515
 30
0.0
 40
4.999999999999726
 50
142.2319934935463
 51
180.0
  0
ARC
  5
23C
  8
1
  6
CONTINUOUS
 62
     7
 10
4196.995047826647
 20
4736.863786139525
 30
0.0
 40
5.0
 50
0.0
 51
37.76800650645053
  0
ARC
  5
23D
  8
1
  6
CONTINUOUS
 62
     7
 10
3697.455594310059
 20
4693.999999999982
 30
0.0
 40
4.999999999999474
 50
353.6572526834179
 51
0.0
  0
ARC
  5
23E
  8
1
  6
CONTINUOUS
 62
     7
 10
3697.455594310059
 20
4693.999999999982
 30
0.0
 40
5.0
 50
270.0
 51
353.6572526834179
  0
ARC
  5
23F
  8
1
  6
CONTINUOUS
 62
     7
 10
3687.004952173367
 20
4693.999999999982
 30
0.0
 40
5.0
 50
270.0
 51
0.0
  0
ARC
  5
240
  8
1
  6
CONTINUOUS
 62
     7
 10
4196.544405689956
 20
4693.999999999982
 30
0.0
 40
5.0
 50
180.0
 51
186.3427473165827
  0
ARC
  5
241
  8
1
  6
CONTINUOUS
 62
     7
 10
4196.544405689956
 20
4693.999999999982
 30
0.0
 40
4.999999999999023
 50
186.3427473165827
 51
270.0
  0
ARC
  5
242
  8
1
  6
CONTINUOUS
 62
     7
 10
4206.995047826647
 20
4693.999999999982
 30
0.0
 40
5.0
 50
180.0
 51
270.0
  0
ARC
  5
243
  8
1
  6
LONG_DASHED
 62
     2
 10
4057.000000000007
 20
5118.999999999998
 30
0.0
 40
50.00000000000045
 50
0.0
 51
90.0
  0
ARC
  5
244
  8
1
  6
LONG_DASHED
 62
     2
 10
3839.500000000007
 20
5116.499999999998
 30
0.0
 40
52.55949010407159
 50
87.27368900609375
 51
177.2736890060937
  0
ARC
  5
245
  8
1
  6
LONG_DASHED
 62
     2
 10
3997.000000000007
 20
5173.999999999998
 30
0.0
 40
5.0
 50
180.0
 51
270.0
  0
ARC
  5
246
  8
1
  6
LONG_DASHED
 62
     2
 10
3897.000000000007
 20
5173.999999999998
 30
0.0
 40
5.0
 50
270.0
 51
0.0
  0
ARC
  5
247
  8
1
  6
CONTINUOUS
 62
     7
 10
4984.995047826647
 20
4693.999999999985
 30
0.0
 40
5.0
 50
180.0
 51
270.0
  0
ARC
  5
248
  8
1
  6
LONG_DASHED
 62
     2
 10
4835.000000000007
 20
5019.000000000002
 30
0.0
 40
50.0
 50
0.0
 51
90.0
  0
ARC
  5
249
  8
1
  6
LONG_DASHED
 62
     2
 10
4617.500000000007
 20
5016.500000000002
 30
0.0
 40
52.55949010407159
 50
87.27368900609375
 51
177.2736890060937
  0
ARC
  5
24A
  8
1
  6
LONG_DASHED
 62
     2
 10
4775.000000000007
 20
5074.000000000002
 30
0.0
 40
5.0
 50
180.0
 51
270.0
  0
ARC
  5
24B
  8
1
  6
LONG_DASHED
 62
     2
 10
4675.000000000007
 20
5074.000000000002
 30
0.0
 40
5.0
 50
270.0
 51
0.0
  0
ARC
  5
24C
  8
1
  6
CONTINUOUS
 62
     7
 10
5682.000000000007
 20
4375.000000000001
 30
0.0
 40
25.0
 50
0.0
 51
90.0
  0
ARC
  5
24D
  8
1
  6
LONG_DASHED
 62
     2
 10
5592.000000000007
 20
5019.000000000002
 30
0.0
 40
50.0
 50
0.0
 51
90.0
  0
ARC
  5
24E
  8
1
  6
LONG_DASHED
 62
     2
 10
5372.000000000007
 20
5019.000000000002
 30
0.0
 40
50.0
 50
90.0
 51
180.0
  0
ARC
  5
24F
  8
1
  6
LONG_DASHED
 62
     2
 10
5432.000000000007
 20
5074.000000000002
 30
0.0
 40
5.0
 50
270.0
 51
0.0
  0
ARC
  5
250
  8
1
  6
LONG_DASHED
 62
     2
 10
5532.000000000007
 20
5074.000000000002
 30
0.0
 40
5.0
 50
180.0
 51
270.0
  0
ARC
  5
251
  8
1
  6
CONTINUOUS
 62
     7
 10
4974.995047826647
 20
4737.140131969696
 30
0.0
 40
5.0
 50
0.0
 51
37.61890567959104
  0
ARC
  5
252
  8
1
  6
CONTINUOUS
 62
     7
 10
4979.270388988741
 20
4693.999999999985
 30
0.0
 40
4.999999999999553
 50
182.1550541303672
 51
270.0
  0
ARC
  5
253
  8
1
  6
CONTINUOUS
 62
     7
 10
4465.004952173366
 20
4693.999999999985
 30
0.0
 40
5.0
 50
270.0
 51
0.0
  0
ARC
  5
254
  8
1
  6
CONTINUOUS
 62
     7
 10
4475.004952173366
 20
4737.140131969696
 30
0.0
 40
4.999999999999588
 50
142.381094320409
 51
180.0
  0
ARC
  5
255
  8
1
  6
CONTINUOUS
 62
     2
 10
4470.729611011273
 20
4693.999999999985
 30
0.0
 40
5.0
 50
270.0
 51
357.8449458696327
  0
ARC
  5
256
  8
1
  6
CONTINUOUS
 62
     7
 10
5676.999999999986
 20
5363.999999999981
 30
0.0
 40
30.0
 50
269.9999999999983
 51
359.9999999999965
  0
ARC
  5
257
  8
1
  6
CONTINUOUS
 62
     7
 10
5287.000000000006
 20
5363.999999999978
 30
0.0
 40
30.0
 50
179.9999999999983
 51
270.0
  0
ARC
  5
258
  8
1
  6
CONTINUOUS
 62
     7
 10
5287.000000000006
 20
5753.999999999648
 30
0.0
 40
30.0
 50
90.00000000004343
 51
180.0
  0
ARC
  5
259
  8
1
  6
CONTINUOUS
 62
     7
 10
5677.000000000006
 20
5753.999999999955
 30
0.0
 40
30.0
 50
359.9999999999965
 51
90.00000000004864
  0
ARC
  5
25A
  8
1
  6
CONTINUOUS
 62
     7
 10
5631.999999999977
 20
5408.999999999978
 30
0.0
 40
30.0
 50
270.0
 51
0.0
  0
ARC
  5
25B
  8
1
  6
CONTINUOUS
 62
     7
 10
5631.999999999976
 20
5708.949776659555
 30
0.0
 40
30.0
 50
0.0
 51
90.0
  0
ARC
  5
25C
  8
1
  6
CONTINUOUS
 62
     7
 10
5331.999999999976
 20
5708.949776659555
 30
0.0
 40
30.0
 50
90.0
 51
180.0
  0
ARC
  5
25D
  8
1
  6
CONTINUOUS
 62
     7
 10
5331.999999999975
 20
5408.999999999977
 30
0.0
 40
30.0
 50
180.0
 51
270.0
  0
ARC
  5
25E
  8
1
  6
CONTINUOUS
 62
     7
 10
5576.500000000006
 20
4649.000000000002
 30
0.0
 40
3.0
 50
0.0
 51
90.0
  0
ARC
  5
25F
  8
1
  6
CONTINUOUS
 62
     7
 10
5387.500000000008
 20
4649.000000000002
 30
0.0
 40
3.0
 50
90.0
 51
180.0
  0
ARC
  5
260
  8
1
  6
CONTINUOUS
 62
     7
 10
4955.345237791573
 20
4649.000000000002
 30
0.0
 40
3.0
 50
0.0
 51
90.0
  0
ARC
  5
261
  8
1
  6
CONTINUOUS
 62
     7
 10
4812.852813742399
 20
4649.000000000003
 30
0.0
 40
3.0
 50
90.0
 51
180.0
  0
ARC
  5
262
  8
1
  6
CONTINUOUS
 62
     7
 10
4494.654762208455
 20
4649.000000000002
 30
0.0
 40
3.0
 50
90.0
 51
180.0
  0
ARC
  5
263
  8
1
  6
CONTINUOUS
 62
     7
 10
4637.147186257629
 20
4649.000000000003
 30
0.0
 40
3.0
 50
0.0
 51
90.0
  0
ARC
  5
264
  8
1
  6
CONTINUOUS
 62
     7
 10
4177.345237791573
 20
4648.999999999998
 30
0.0
 40
3.0
 50
0.0
 51
90.0
  0
ARC
  5
265
  8
1
  6
CONTINUOUS
 62
     7
 10
4034.852813742399
 20
4648.999999999999
 30
0.0
 40
3.0
 50
90.0
 51
180.0
  0
ARC
  5
266
  8
1
  6
CONTINUOUS
 62
     7
 10
3716.654762208455
 20
4648.999999999998
 30
0.0
 40
3.0
 50
90.0
 51
180.0
  0
ARC
  5
267
  8
1
  6
CONTINUOUS
 62
     7
 10
3859.147186257629
 20
4648.999999999999
 30
0.0
 40
3.0
 50
0.0
 51
90.0
  0
ENDSEC
  0
EOF
