  0
SECTION
  2
HEADER
  9
$ACADVER
  1
AC1009
  9
$DWGCODEPAGE
  3
ansi_932
  9
$INSBASE
 10
0.0
 20
0.0
 30
0.0
  9
$EXTMIN
 10
2883.000000000002
 20
-2677.86408159516
 30
0.0
  9
$EXTMAX
 10
4398.670851941234
 20
-1500.054635344656
 30
0.0
  9
$LIMMIN
 10
0.0
 20
0.0
  9
$LIMMAX
 10
12.0
 20
9.0
  9
$ORTHOMODE
 70
     0
  9
$REGENMODE
 70
     1
  9
$FILLMODE
 70
     1
  9
$QTEXTMODE
 70
     0
  9
$MIRRTEXT
 70
     1
  9
$DRAGMODE
 70
     2
  9
$LTSCALE
 40
1.0
  9
$OSMODE
 70
    37
  9
$ATTMODE
 70
     1
  9
$TEXTSIZE
 40
0.2
  9
$TRACEWID
 40
0.05
  9
$TEXTSTYLE
  7
STANDARD
  9
$CLAYER
  8
0
  9
$CELTYPE
  6
BYLAYER
  9
$CECOLOR
 62
   256
  9
$DIMSCALE
 40
1.0
  9
$DIMASZ
 40
0.18
  9
$DIMEXO
 40
0.0625
  9
$DIMDLI
 40
0.38
  9
$DIMRND
 40
0.0
  9
$DIMDLE
 40
0.0
  9
$DIMEXE
 40
0.18
  9
$DIMTP
 40
0.0
  9
$DIMTM
 40
0.0
  9
$DIMTXT
 40
0.18
  9
$DIMCEN
 40
0.09
  9
$DIMTSZ
 40
0.0
  9
$DIMTOL
 70
     0
  9
$DIMLIM
 70
     0
  9
$DIMTIH
 70
     1
  9
$DIMTOH
 70
     1
  9
$DIMSE1
 70
     0
  9
$DIMSE2
 70
     0
  9
$DIMTAD
 70
     0
  9
$DIMZIN
 70
     0
  9
$DIMBLK
  1

  9
$DIMASO
 70
     1
  9
$DIMSHO
 70
     1
  9
$DIMPOST
  1

  9
$DIMAPOST
  1

  9
$DIMALT
 70
     0
  9
$DIMALTD
 70
     2
  9
$DIMALTF
 40
25.4
  9
$DIMLFAC
 40
1.0
  9
$DIMTOFL
 70
     0
  9
$DIMTVP
 40
0.0
  9
$DIMTIX
 70
     0
  9
$DIMSOXD
 70
     0
  9
$DIMSAH
 70
     0
  9
$DIMBLK1
  1

  9
$DIMBLK2
  1

  9
$DIMSTYLE
  2
STANDARD
  9
$DIMCLRD
 70
     0
  9
$DIMCLRE
 70
     0
  9
$DIMCLRT
 70
     0
  9
$DIMTFAC
 40
1.0
  9
$DIMGAP
 40
0.09
  9
$LUNITS
 70
     2
  9
$LUPREC
 70
     4
  9
$SKETCHINC
 40
0.1
  9
$FILLETRAD
 40
0.5
  9
$AUNITS
 70
     0
  9
$AUPREC
 70
     0
  9
$MENU
  1
.
  9
$ELEVATION
 40
0.0
  9
$PELEVATION
 40
0.0
  9
$THICKNESS
 40
0.0
  9
$LIMCHECK
 70
     0
  9
$CHAMFERA
 40
0.5
  9
$CHAMFERB
 40
0.5
  9
$SKPOLY
 70
     0
  9
$TDCREATE
 40
2457856.413348704
  9
$TDUPDATE
 40
2457856.413348715
  9
$TDINDWG
 40
0.0000000116
  9
$TDUSRTIMER
 40
0.0000000116
  9
$USRTIMER
 70
     1
  9
$ANGBASE
 50
0.0
  9
$ANGDIR
 70
     0
  9
$PDMODE
 70
     0
  9
$PDSIZE
 40
0.0
  9
$PLINEWID
 40
0.0
  9
$COORDS
 70
     1
  9
$SPLFRAME
 70
     0
  9
$SPLINETYPE
 70
     6
  9
$SPLINESEGS
 70
     8
  9
$ATTDIA
 70
     0
  9
$ATTREQ
 70
     1
  9
$HANDLING
 70
     1
  9
$HANDSEED
  5
19E
  9
$SURFTAB1
 70
     6
  9
$SURFTAB2
 70
     6
  9
$SURFTYPE
 70
     6
  9
$SURFU
 70
     6
  9
$SURFV
 70
     6
  9
$UCSNAME
  2

  9
$UCSORG
 10
0.0
 20
0.0
 30
0.0
  9
$UCSXDIR
 10
1.0
 20
0.0
 30
0.0
  9
$UCSYDIR
 10
0.0
 20
1.0
 30
0.0
  9
$PUCSNAME
  2

  9
$PUCSORG
 10
0.0
 20
0.0
 30
0.0
  9
$PUCSXDIR
 10
1.0
 20
0.0
 30
0.0
  9
$PUCSYDIR
 10
0.0
 20
1.0
 30
0.0
  9
$USERI1
 70
     0
  9
$USERI2
 70
     0
  9
$USERI3
 70
     0
  9
$USERI4
 70
     0
  9
$USERI5
 70
     0
  9
$USERR1
 40
17.0
  9
$USERR2
 40
0.0
  9
$USERR3
 40
0.0
  9
$USERR4
 40
0.0
  9
$USERR5
 40
0.0
  9
$WORLDVIEW
 70
     1
  9
$SHADEDGE
 70
     3
  9
$SHADEDIF
 70
    70
  9
$TILEMODE
 70
     1
  9
$MAXACTVP
 70
    64
  9
$PLIMCHECK
 70
     0
  9
$PEXTMIN
 10
1.00000000000000E+20
 20
1.00000000000000E+20
 30
1.00000000000000E+20
  9
$PEXTMAX
 10
-1.00000000000000E+20
 20
-1.00000000000000E+20
 30
-1.00000000000000E+20
  9
$PLIMMIN
 10
0.0
 20
0.0
  9
$PLIMMAX
 10
12.0
 20
9.0
  9
$UNITMODE
 70
     0
  9
$VISRETAIN
 70
     1
  9
$PLINEGEN
 70
     0
  9
$PSLTSCALE
 70
     1
  0
ENDSEC
  0
SECTION
  2
TABLES
  0
TABLE
  2
VPORT
 70
     1
  0
VPORT
  2
*ACTIVE
 70
     0
 10
0.0
 20
0.0
 11
1.0
 21
1.0
 12
3640.835425970618
 22
-2088.959358469908
 13
0.0
 23
0.0
 14
0.5
 24
0.5
 15
0.5
 25
0.5
 16
0.0
 26
0.0
 36
1.0
 17
0.0
 27
0.0
 37
0.0
 40
1295.590390875554
 41
1.60267857142857
 42
50.0
 43
0.0
 44
0.0
 50
0.0
 51
0.0
 71
     0
 72
   100
 73
     1
 74
     3
 75
     0
 76
     0
 77
     0
 78
     0
  0
ENDTAB
  0
TABLE
  2
LTYPE
 70
     8
  0
LTYPE
  2
CONTINUOUS
 70
     0
  3
Solid line
 72
    65
 73
     0
 40
0.0
  0
LTYPE
  2
DASHED
 70
     0
  3
Dashed
 72
    65
 73
     2
 40
15.0
 49
7.0
 49
-8.0
  0
LTYPE
  2
DOTTED
 70
     0
  3
Dotted
 72
    65
 73
     2
 40
1.0
 49
0.0
 49
-1.0
  0
LTYPE
  2
DOT_CENTER
 70
     0
  3
Dot_Center
 72
    65
 73
     4
 40
14.0
 49
12.0
 49
-1.0
 49
0.0
 49
-1.0
  0
LTYPE
  2
LONG_DASHED
 70
     0
  3
Long_Dashed
 72
    65
 73
     2
 40
15.0
 49
10.0
 49
-5.0
  0
LTYPE
  2
DASH_CENTER
 70
     0
  3
Dash_Center
 72
    65
 73
     4
 40
14.0
 49
11.0
 49
-1.0
 49
1.0
 49
-1.0
  0
LTYPE
  2
PHANTOM
 70
     0
  3
Phantom
 72
    65
 73
     6
 40
13.0
 49
10.0
 49
-1.0
 49
0.0
 49
-1.0
 49
0.0
 49
-1.0
  0
LTYPE
  2
CENTER_DASH_DASH
 70
     0
  3
Center_Dash_Dash
 72
    65
 73
     6
 40
14.0
 49
9.0
 49
-1.0
 49
1.0
 49
-1.0
 49
1.0
 49
-1.0
  0
ENDTAB
  0
TABLE
  2
LAYER
 70
     2
  0
LAYER
  2
0
 70
     0
 62
     7
  6
CONTINUOUS
  0
LAYER
  2
1
 70
     0
 62
     7
  6
CONTINUOUS
  0
ENDTAB
  0
TABLE
  2
STYLE
 70
     1
  0
STYLE
  2
STANDARD
 70
     0
 40
0.0
 41
1.0
 50
0.0
 71
     0
 42
0.2
  3
txt
  4

  0
ENDTAB
  0
TABLE
  2
VIEW
 70
     0
  0
ENDTAB
  0
TABLE
  2
UCS
 70
     0
  0
ENDTAB
  0
TABLE
  2
APPID
 70
     1
  0
APPID
  2
ACAD
 70
     0
  0
ENDTAB
  0
TABLE
  2
DIMSTYLE
 70
     1
  0
DIMSTYLE
  2
STANDARD
 70
     0
  3

  4

  5

  6

  7

 40
1.0
 41
0.18
 42
0.0625
 43
0.38
 44
0.18
 45
0.0
 46
0.0
 47
0.0
 48
0.0
140
0.18
141
0.09
142
0.0
143
25.4
144
1.0
145
0.0
146
1.0
147
0.09
 71
     0
 72
     0
 73
     1
 74
     1
 75
     0
 76
     0
 77
     0
 78
     0
170
     0
171
     2
172
     0
173
     0
174
     0
175
     0
176
     0
177
     0
178
     0
  0
ENDTAB
  0
ENDSEC
  0
SECTION
  2
BLOCKS
  0
BLOCK
  8
0
  2
$MODEL_SPACE
 70
     0
 10
0.0
 20
0.0
 30
0.0
  3
$MODEL_SPACE
  1

  0
ENDBLK
  5
21
  8
0
  0
BLOCK
 67
     1
  8
0
  2
$PAPER_SPACE
 70
     0
 10
0.0
 20
0.0
 30
0.0
  3
$PAPER_SPACE
  1

  0
ENDBLK
  5
1D
 67
     1
  8
0
  0
ENDSEC
  0
SECTION
  2
ENTITIES
  0
LINE
  5
47
  8
1
  6
DOT_CENTER
 62
     2
 10
4094.247691321005
 20
-2226.467141138488
 30
0.0
 11
4094.247691321005
 21
-2166.467141138488
 31
0.0
  0
LINE
  5
48
  8
1
  6
DOT_CENTER
 62
     2
 10
4189.000000000002
 20
-2346.135918404841
 30
0.0
 11
4189.000000000002
 21
-2384.0
 31
0.0
  0
LINE
  5
49
  8
1
  6
LONG_DASHED
 62
     2
 10
4275.743164991185
 20
-2403.375447528587
 30
0.0
 11
4252.738773072977
 21
-2416.657039395109
 31
0.0
  0
LINE
  5
4A
  8
1
  6
LONG_DASHED
 62
     2
 10
4284.342960604894
 20
-2448.261226927024
 30
0.0
 11
4297.624552471414
 21
-2425.256835008817
 31
0.0
  0
LINE
  5
4B
  8
1
  6
LONG_DASHED
 62
     2
 10
4080.375447528589
 20
-2425.256835008817
 30
0.0
 11
4093.657039395109
 21
-2448.261226927024
 31
0.0
  0
LINE
  5
4C
  8
1
  6
LONG_DASHED
 62
     2
 10
4125.261226927027
 20
-2416.657039395109
 30
0.0
 11
4102.256835008819
 21
-2403.375447528587
 31
0.0
  0
LINE
  5
4D
  8
1
  6
CONTINUOUS
 62
     2
 10
4328.0
 20
-2191.962074691828
 30
0.0
 11
4301.51517573574
 21
-2191.962074691828
 31
0.0
  0
LINE
  5
4E
  8
1
  6
DOT_CENTER
 62
     2
 10
4189.000000000002
 20
-2512.0
 30
0.0
 11
4071.713894902197
 21
-2394.713894902196
 31
0.0
  0
LINE
  5
4F
  8
1
  6
DOT_CENTER
 62
     2
 10
4189.000000000002
 20
-2512.0
 30
0.0
 11
4189.000000000002
 21
-2519.0
 31
0.0
  0
LINE
  5
50
  8
1
  6
DOT_CENTER
 62
     2
 10
4189.000000000002
 20
-2512.0
 30
0.0
 11
4301.208631201258
 21
-2399.791368798744
 31
0.0
  0
LINE
  5
51
  8
1
  6
DOT_CENTER
 62
     7
 10
4323.000000000002
 20
-2512.0
 30
0.0
 11
4317.000000000002
 21
-2512.000000000001
 31
0.0
  0
LINE
  5
52
  8
1
  6
DOT_CENTER
 62
     2
 10
4055.000000000002
 20
-2512.0
 30
0.0
 11
4061.000000000002
 21
-2512.0
 31
0.0
  0
LINE
  5
53
  8
1
  6
DOT_CENTER
 62
     2
 10
4189.000000000002
 20
-2384.0
 30
0.0
 11
4189.000000000002
 21
-2512.0
 31
0.0
  0
LINE
  5
54
  8
1
  6
DOT_CENTER
 62
     2
 10
4398.670851941234
 20
-2512.000000000001
 30
0.0
 11
4061.000000000002
 21
-2512.0
 31
0.0
  0
LINE
  5
55
  8
1
  6
DOT_CENTER
 62
     2
 10
3979.32914805877
 20
-2512.0
 30
0.0
 11
4039.000000000002
 21
-2512.0
 31
0.0
  0
LINE
  5
56
  8
1
  6
CONTINUOUS
 62
     7
 10
4239.000000000005
 20
-1913.119069994144
 30
0.0
 11
4293.999999999891
 21
-1913.119069994144
 31
0.0
  0
LINE
  5
57
  8
1
  6
LONG_DASHED
 62
     2
 10
4239.000000000005
 20
-1938.119069994144
 30
0.0
 11
4139.000000000005
 21
-1938.119069994144
 31
0.0
  0
LINE
  5
58
  8
1
  6
LONG_DASHED
 62
     2
 10
4239.000000000005
 20
-1938.119069994144
 30
0.0
 11
4239.000000000005
 21
-1913.119069994144
 31
0.0
  0
LINE
  5
59
  8
1
  6
LONG_DASHED
 62
     2
 10
4139.000000000005
 20
-1938.119069994144
 30
0.0
 11
4118.962447887945
 21
-1938.119069994144
 31
0.0
  0
LINE
  5
5A
  8
1
  6
CONTINUOUS
 62
     7
 10
4139.000000000005
 20
-1913.119069994144
 30
0.0
 11
4239.000000000005
 21
-1913.119069994144
 31
0.0
  0
LINE
  5
5B
  8
1
  6
LONG_DASHED
 62
     2
 10
4139.000000000005
 20
-1938.119069994144
 30
0.0
 11
4139.000000000005
 21
-1913.119069994144
 31
0.0
  0
LINE
  5
5C
  8
1
  6
LONG_DASHED
 62
     2
 10
4259.03755211206
 20
-1938.119069994144
 30
0.0
 11
4239.000000000005
 21
-1938.119069994144
 31
0.0
  0
LINE
  5
5D
  8
1
  6
LONG_DASHED
 62
     2
 10
4098.962447887945
 20
-1958.119069994144
 30
0.0
 11
4098.962447887945
 21
-2213.119069994144
 31
0.0
  0
LINE
  5
5E
  8
1
  6
CONTINUOUS
 62
     2
 10
4092.745290774161
 20
-2138.119069994144
 30
0.0
 11
4283.745290774161
 21
-2138.119069994144
 31
0.0
  0
LINE
  5
5F
  8
1
  6
CONTINUOUS
 62
     7
 10
4189.000000000002
 20
-2213.119069994144
 30
0.0
 11
4098.962447887945
 21
-2213.119069994144
 31
0.0
  0
LINE
  5
60
  8
1
  6
CONTINUOUS
 62
     7
 10
4084.000000000115
 20
-1913.119069994144
 30
0.0
 11
4139.000000000005
 21
-1913.119069994144
 31
0.0
  0
LINE
  5
61
  8
1
  6
CONTINUOUS
 62
     7
 10
4084.000000000116
 20
-1918.119069994144
 30
0.0
 11
4084.000000000115
 21
-1913.119069994144
 31
0.0
  0
LINE
  5
62
  8
1
  6
CONTINUOUS
 62
     7
 10
4293.999999999891
 20
-1913.119069994144
 30
0.0
 11
4293.999999999893
 21
-1918.119069994144
 31
0.0
  0
LINE
  5
63
  8
1
  6
CONTINUOUS
 62
     7
 10
4293.999999999891
 20
-1913.119069994144
 30
0.0
 11
4293.999999999893
 21
-1918.119069994144
 31
0.0
  0
LINE
  5
64
  8
1
  6
CONTINUOUS
 62
     2
 10
4084.000000000116
 20
-1918.119069994144
 30
0.0
 11
4189.000000000002
 21
-1918.119069994144
 31
0.0
  0
LINE
  5
65
  8
1
  6
CONTINUOUS
 62
     7
 10
4102.269766136138
 20
-1576.699930521501
 30
0.0
 11
4108.525277801811
 21
-1580.311551865595
 31
0.0
  0
LINE
  5
66
  8
1
  6
CONTINUOUS
 62
     7
 10
4084.000000000002
 20
-1604.836829667403
 30
0.0
 11
4080.388378655908
 21
-1598.581318001731
 31
0.0
  0
LINE
  5
67
  8
1
  6
CONTINUOUS
 62
     7
 10
4297.611621344096
 20
-1598.581318001731
 30
0.0
 11
4294.000000000002
 21
-1604.836829667403
 31
0.0
  0
LINE
  5
68
  8
1
  6
CONTINUOUS
 62
     7
 10
4269.474722198193
 20
-1580.311551865595
 30
0.0
 11
4275.730233863867
 21
-1576.699930521501
 31
0.0
  0
LINE
  5
69
  8
1
  6
CONTINUOUS
 62
     7
 10
4294.000000000003
 20
-1765.786274063786
 30
0.0
 11
4297.611621344096
 21
-1772.041785729459
 31
0.0
  0
LINE
  5
6A
  8
1
  6
CONTINUOUS
 62
     7
 10
4275.730233863867
 20
-1793.923173209689
 30
0.0
 11
4269.474722198194
 21
-1790.311551865595
 31
0.0
  0
LINE
  5
6B
  8
1
  6
DOT_CENTER
 62
     2
 10
4239.000000000002
 20
-1685.311551865595
 30
0.0
 11
3988.472295898122
 21
-1685.311551865595
 31
0.0
  0
LINE
  5
6C
  8
1
  6
DOT_CENTER
 62
     2
 10
4189.000000000002
 20
-1500.054635344656
 30
0.0
 11
4189.000000000002
 21
-1870.054635344656
 31
0.0
  0
LINE
  5
6D
  8
1
  6
CONTINUOUS
 62
     7
 10
4104.000000000002
 20
-1580.311551865595
 30
0.0
 11
4274.000000000002
 21
-1580.311551865594
 31
0.0
  0
LINE
  5
6E
  8
1
  6
CONTINUOUS
 62
     7
 10
4294.000000000002
 20
-1600.311551865594
 30
0.0
 11
4294.000000000002
 21
-1770.311551865595
 31
0.0
  0
LINE
  5
6F
  8
1
  6
DOT_CENTER
 62
     2
 10
4370.236147949062
 20
-1685.311551865595
 30
0.0
 11
4339.000000000002
 21
-1685.311551865595
 31
0.0
  0
LINE
  5
70
  8
1
  6
CONTINUOUS
 62
     7
 10
4084.000000000116
 20
-1988.119069994144
 30
0.0
 11
4083.999999999955
 21
-2138.119069994144
 31
0.0
  0
LINE
  5
71
  8
1
  6
CONTINUOUS
 62
     7
 10
4293.999999999895
 20
-1913.119069994144
 30
0.0
 11
4293.999999999893
 21
-1918.119069994144
 31
0.0
  0
LINE
  5
72
  8
1
  6
CONTINUOUS
 62
     7
 10
4293.999999999891
 20
-2138.119069994144
 30
0.0
 11
4293.999999999893
 21
-1918.119069994144
 31
0.0
  0
LINE
  5
73
  8
1
  6
CONTINUOUS
 62
     7
 10
4083.999999999955
 20
-2138.119069994144
 30
0.0
 11
4084.000000000116
 21
-2138.119069994144
 31
0.0
  0
LINE
  5
74
  8
1
  6
CONTINUOUS
 62
     7
 10
4039.000000000002
 20
-2208.119069994144
 30
0.0
 11
4039.000000000002
 21
-2213.119069994144
 31
0.0
  0
LINE
  5
75
  8
1
  6
CONTINUOUS
 62
     7
 10
4098.962447887945
 20
-2213.119069994144
 30
0.0
 11
4039.018287375631
 21
-2213.119069994144
 31
0.0
  0
LINE
  5
76
  8
1
  6
CONTINUOUS
 62
     7
 10
4339.000000000002
 20
-2213.119069994144
 30
0.0
 11
4279.03755211206
 21
-2213.119069994144
 31
0.0
  0
LINE
  5
77
  8
1
  6
CONTINUOUS
 62
     7
 10
4279.03755211206
 20
-2213.119069994144
 30
0.0
 11
4189.000000000002
 21
-2213.119069994144
 31
0.0
  0
LINE
  5
78
  8
1
  6
LONG_DASHED
 62
     2
 10
4279.03755211206
 20
-2213.119069994144
 30
0.0
 11
4279.03755211206
 21
-1958.119069994144
 31
0.0
  0
LINE
  5
79
  8
1
  6
CONTINUOUS
 62
     7
 10
4098.962447887945
 20
-2213.119069994144
 30
0.0
 11
4039.000000000002
 21
-2213.119069994144
 31
0.0
  0
LINE
  5
7A
  8
1
  6
CONTINUOUS
 62
     7
 10
4293.999999999888
 20
-2138.119069994144
 30
0.0
 11
4294.000000000049
 21
-2138.119069994144
 31
0.0
  0
LINE
  5
7B
  8
1
  6
CONTINUOUS
 62
     7
 10
4339.000000000002
 20
-2213.119069994144
 30
0.0
 11
4339.000000000002
 21
-2208.119069994144
 31
0.0
  0
LINE
  5
7C
  8
1
  6
CONTINUOUS
 62
     7
 10
4084.000000000001
 20
-1770.311551865595
 30
0.0
 11
4084.000000000001
 21
-1600.311551865595
 31
0.0
  0
LINE
  5
7D
  8
1
  6
CONTINUOUS
 62
     7
 10
4274.000000000001
 20
-1790.311551865595
 30
0.0
 11
4104.000000000001
 21
-1790.311551865595
 31
0.0
  0
LINE
  5
7E
  8
1
  6
CONTINUOUS
 62
     7
 10
4108.525277801809
 20
-1790.311551865595
 30
0.0
 11
4102.269766136138
 21
-1793.92317320969
 31
0.0
  0
LINE
  5
7F
  8
1
  6
CONTINUOUS
 62
     7
 10
4080.388378655907
 20
-1772.041785729459
 30
0.0
 11
4084.000000000002
 21
-1765.786274063787
 31
0.0
  0
LINE
  5
80
  8
1
  6
DOT_CENTER
 62
     2
 10
4339.000000000002
 20
-1685.311551865583
 30
0.0
 11
4294.000000000002
 21
-1685.311551865587
 31
0.0
  0
LINE
  5
81
  8
1
  6
DOT_CENTER
 62
     7
 10
4294.000000000002
 20
-1685.311551865587
 30
0.0
 11
4279.000000000002
 21
-1685.311551865588
 31
0.0
  0
LINE
  5
82
  8
1
  6
DOT_CENTER
 62
     2
 10
4279.000000000002
 20
-1685.311551865588
 30
0.0
 11
4239.000000000002
 21
-1685.311551865591
 31
0.0
  0
LINE
  5
83
  8
1
  6
CONTINUOUS
 62
     7
 10
4293.999999999893
 20
-1918.119069994144
 30
0.0
 11
4293.999999999891
 21
-1918.119069994144
 31
0.0
  0
LINE
  5
84
  8
1
  6
CONTINUOUS
 62
     7
 10
4293.999999999893
 20
-1918.119069994144
 30
0.0
 11
4293.999999999891
 21
-1918.119069994144
 31
0.0
  0
LINE
  5
85
  8
1
  6
CONTINUOUS
 62
     7
 10
4293.999999999893
 20
-1918.119069994144
 30
0.0
 11
4293.999999999891
 21
-1918.119069994144
 31
0.0
  0
LINE
  5
86
  8
1
  6
CONTINUOUS
 62
     7
 10
4084.000000000116
 20
-1918.119069994144
 30
0.0
 11
4084.000000000116
 21
-1988.119069994144
 31
0.0
  0
LINE
  5
87
  8
1
  6
CONTINUOUS
 62
     2
 10
4189.000000000002
 20
-1918.119069994144
 30
0.0
 11
4293.999999999893
 21
-1918.119069994144
 31
0.0
  0
LINE
  5
88
  8
1
  6
DOT_CENTER
 62
     2
 10
4189.000000000002
 20
-1900.054635344656
 30
0.0
 11
4189.000000000002
 21
-2231.827770531141
 31
0.0
  0
LINE
  5
89
  8
1
  6
CONTINUOUS
 62
     2
 10
4333.42712565306
 20
-2208.119069994144
 30
0.0
 11
4299.752308679
 21
-2208.119069994144
 31
0.0
  0
LINE
  5
8A
  8
1
  6
DOT_CENTER
 62
     2
 10
4039.000000000002
 20
-2512.0
 30
0.0
 11
4055.000000000002
 21
-2512.0
 31
0.0
  0
LINE
  5
8B
  8
1
  6
CONTINUOUS
 62
     7
 10
4299.752308679
 20
-2208.119069994144
 30
0.0
 11
4299.752308679
 21
-2178.119069994144
 31
0.0
  0
LINE
  5
8C
  8
1
  6
CONTINUOUS
 62
     7
 10
4294.752308679
 20
-2173.119069994144
 30
0.0
 11
4252.738773072977
 21
-2173.119069994144
 31
0.0
  0
LINE
  5
8D
  8
1
  6
DOT_CENTER
 62
     2
 10
4283.752308678999
 20
-2166.467141138488
 30
0.0
 11
4283.752308678999
 21
-2226.467141138488
 31
0.0
  0
LINE
  5
8E
  8
1
  6
CONTINUOUS
 62
     2
 10
4299.752308679
 20
-2178.119069994144
 30
0.0
 11
4260.752308679
 21
-2178.119069994144
 31
0.0
  0
LINE
  5
8F
  8
1
  6
CONTINUOUS
 62
     2
 10
4278.698066964417
 20
-2191.962074691828
 30
0.0
 11
4094.12851944879
 21
-2191.962074691828
 31
0.0
  0
LINE
  5
90
  8
1
  6
CONTINUOUS
 62
     2
 10
4299.752308679
 20
-2208.119069994144
 30
0.0
 11
4042.42712565306
 21
-2208.119069994144
 31
0.0
  0
LINE
  5
91
  8
1
  6
CONTINUOUS
 62
     7
 10
4078.247691321004
 20
-2178.119069994144
 30
0.0
 11
4078.247691321004
 21
-2208.119069994144
 31
0.0
  0
LINE
  5
92
  8
1
  6
CONTINUOUS
 62
     7
 10
4125.261226927027
 20
-2173.119069994144
 30
0.0
 11
4083.247691321004
 21
-2173.119069994144
 31
0.0
  0
LINE
  5
93
  8
1
  6
CONTINUOUS
 62
     2
 10
4117.247691321004
 20
-2178.119069994144
 30
0.0
 11
4078.247691321004
 21
-2178.119069994144
 31
0.0
  0
LINE
  5
94
  8
1
  6
CONTINUOUS
 62
     2
 10
4076.59532820737
 20
-2191.962074691828
 30
0.0
 11
4049.0
 21
-2191.962074691828
 31
0.0
  0
LINE
  5
95
  8
1
  6
CONTINUOUS
 62
     2
 10
3958.0
 20
-2191.962074691828
 30
0.0
 11
3931.51517573574
 21
-2191.962074691828
 31
0.0
  0
LINE
  5
96
  8
1
  6
CONTINUOUS
 62
     7
 10
3869.000000000005
 20
-1963.119069994144
 30
0.0
 11
3923.999999999891
 21
-1963.119069994144
 31
0.0
  0
LINE
  5
97
  8
1
  6
LONG_DASHED
 62
     2
 10
3869.000000000005
 20
-1988.119069994144
 30
0.0
 11
3769.000000000005
 21
-1988.119069994144
 31
0.0
  0
LINE
  5
98
  8
1
  6
LONG_DASHED
 62
     2
 10
3869.000000000005
 20
-1988.119069994144
 30
0.0
 11
3869.000000000005
 21
-1963.119069994144
 31
0.0
  0
LINE
  5
99
  8
1
  6
LONG_DASHED
 62
     2
 10
3769.000000000005
 20
-1988.119069994144
 30
0.0
 11
3748.962447887945
 21
-1988.119069994144
 31
0.0
  0
LINE
  5
9A
  8
1
  6
CONTINUOUS
 62
     7
 10
3769.000000000005
 20
-1963.119069994144
 30
0.0
 11
3869.000000000005
 21
-1963.119069994144
 31
0.0
  0
LINE
  5
9B
  8
1
  6
LONG_DASHED
 62
     2
 10
3769.000000000005
 20
-1988.119069994144
 30
0.0
 11
3769.000000000005
 21
-1963.119069994144
 31
0.0
  0
LINE
  5
9C
  8
1
  6
LONG_DASHED
 62
     2
 10
3889.03755211206
 20
-1988.119069994144
 30
0.0
 11
3869.000000000005
 21
-1988.119069994144
 31
0.0
  0
LINE
  5
9D
  8
1
  6
LONG_DASHED
 62
     2
 10
3728.962447887945
 20
-2008.119069994144
 30
0.0
 11
3728.962447887945
 21
-2213.119069994144
 31
0.0
  0
LINE
  5
9E
  8
1
  6
CONTINUOUS
 62
     2
 10
3722.745290774161
 20
-2138.119069994144
 30
0.0
 11
3913.745290774161
 21
-2138.119069994144
 31
0.0
  0
LINE
  5
9F
  8
1
  6
CONTINUOUS
 62
     7
 10
3819.000000000002
 20
-2213.119069994144
 30
0.0
 11
3728.962447887945
 21
-2213.119069994144
 31
0.0
  0
LINE
  5
A0
  8
1
  6
CONTINUOUS
 62
     7
 10
3714.000000000115
 20
-1963.119069994144
 30
0.0
 11
3769.000000000005
 21
-1963.119069994144
 31
0.0
  0
LINE
  5
A1
  8
1
  6
CONTINUOUS
 62
     7
 10
3714.000000000116
 20
-1968.119069994144
 30
0.0
 11
3714.000000000115
 21
-1963.119069994144
 31
0.0
  0
LINE
  5
A2
  8
1
  6
CONTINUOUS
 62
     7
 10
3923.999999999891
 20
-1963.119069994144
 30
0.0
 11
3923.999999999893
 21
-1968.119069994144
 31
0.0
  0
LINE
  5
A3
  8
1
  6
CONTINUOUS
 62
     7
 10
3923.999999999891
 20
-1963.119069994144
 30
0.0
 11
3923.999999999893
 21
-1968.119069994144
 31
0.0
  0
LINE
  5
A4
  8
1
  6
CONTINUOUS
 62
     2
 10
3714.000000000116
 20
-1968.119069994144
 30
0.0
 11
3819.000000000002
 21
-1968.119069994144
 31
0.0
  0
LINE
  5
A5
  8
1
  6
CONTINUOUS
 62
     7
 10
3714.000000000116
 20
-2038.119069994144
 30
0.0
 11
3713.999999999955
 21
-2138.119069994144
 31
0.0
  0
LINE
  5
A6
  8
1
  6
CONTINUOUS
 62
     7
 10
3923.999999999895
 20
-1963.119069994144
 30
0.0
 11
3923.999999999893
 21
-1968.119069994144
 31
0.0
  0
LINE
  5
A7
  8
1
  6
CONTINUOUS
 62
     7
 10
3923.999999999891
 20
-2138.119069994144
 30
0.0
 11
3923.999999999893
 21
-1968.119069994144
 31
0.0
  0
LINE
  5
A8
  8
1
  6
CONTINUOUS
 62
     7
 10
3713.999999999955
 20
-2138.119069994144
 30
0.0
 11
3714.000000000116
 21
-2138.119069994144
 31
0.0
  0
LINE
  5
A9
  8
1
  6
CONTINUOUS
 62
     7
 10
3669.000000000002
 20
-2208.119069994144
 30
0.0
 11
3669.000000000002
 21
-2213.119069994144
 31
0.0
  0
LINE
  5
AA
  8
1
  6
CONTINUOUS
 62
     7
 10
3728.962447887945
 20
-2213.119069994144
 30
0.0
 11
3669.018287375631
 21
-2213.119069994144
 31
0.0
  0
LINE
  5
AB
  8
1
  6
CONTINUOUS
 62
     7
 10
3969.000000000002
 20
-2213.119069994144
 30
0.0
 11
3909.03755211206
 21
-2213.119069994144
 31
0.0
  0
LINE
  5
AC
  8
1
  6
CONTINUOUS
 62
     7
 10
3909.03755211206
 20
-2213.119069994144
 30
0.0
 11
3819.000000000002
 21
-2213.119069994144
 31
0.0
  0
LINE
  5
AD
  8
1
  6
LONG_DASHED
 62
     2
 10
3909.03755211206
 20
-2213.119069994144
 30
0.0
 11
3909.03755211206
 21
-2008.119069994144
 31
0.0
  0
LINE
  5
AE
  8
1
  6
CONTINUOUS
 62
     7
 10
3728.962447887945
 20
-2213.119069994144
 30
0.0
 11
3669.000000000002
 21
-2213.119069994144
 31
0.0
  0
LINE
  5
AF
  8
1
  6
CONTINUOUS
 62
     7
 10
3923.999999999888
 20
-2138.119069994144
 30
0.0
 11
3924.000000000049
 21
-2138.119069994144
 31
0.0
  0
LINE
  5
B0
  8
1
  6
CONTINUOUS
 62
     7
 10
3969.000000000002
 20
-2213.119069994144
 30
0.0
 11
3969.000000000002
 21
-2208.119069994144
 31
0.0
  0
LINE
  5
B1
  8
1
  6
CONTINUOUS
 62
     7
 10
3923.999999999893
 20
-1968.119069994144
 30
0.0
 11
3923.999999999891
 21
-1968.119069994144
 31
0.0
  0
LINE
  5
B2
  8
1
  6
CONTINUOUS
 62
     7
 10
3923.999999999893
 20
-1968.119069994144
 30
0.0
 11
3923.999999999891
 21
-1968.119069994144
 31
0.0
  0
LINE
  5
B3
  8
1
  6
CONTINUOUS
 62
     7
 10
3923.999999999893
 20
-1968.119069994144
 30
0.0
 11
3923.999999999891
 21
-1968.119069994144
 31
0.0
  0
LINE
  5
B4
  8
1
  6
CONTINUOUS
 62
     7
 10
3714.000000000116
 20
-1968.119069994144
 30
0.0
 11
3714.000000000116
 21
-2038.119069994144
 31
0.0
  0
LINE
  5
B5
  8
1
  6
CONTINUOUS
 62
     2
 10
3819.000000000002
 20
-1968.119069994144
 30
0.0
 11
3923.999999999893
 21
-1968.119069994144
 31
0.0
  0
LINE
  5
B6
  8
1
  6
DOT_CENTER
 62
     2
 10
3819.000000000002
 20
-1950.054635344656
 30
0.0
 11
3819.000000000002
 21
-2231.827770531141
 31
0.0
  0
LINE
  5
B7
  8
1
  6
CONTINUOUS
 62
     2
 10
3963.42712565306
 20
-2208.119069994144
 30
0.0
 11
3929.752308679
 21
-2208.119069994144
 31
0.0
  0
LINE
  5
B8
  8
1
  6
CONTINUOUS
 62
     7
 10
3929.752308679
 20
-2208.119069994144
 30
0.0
 11
3929.752308679
 21
-2178.119069994144
 31
0.0
  0
LINE
  5
B9
  8
1
  6
CONTINUOUS
 62
     7
 10
3924.752308679
 20
-2173.119069994144
 30
0.0
 11
3882.738773072977
 21
-2173.119069994144
 31
0.0
  0
LINE
  5
BA
  8
1
  6
DOT_CENTER
 62
     2
 10
3913.752308678999
 20
-2166.467141138488
 30
0.0
 11
3913.752308678999
 21
-2226.467141138488
 31
0.0
  0
LINE
  5
BB
  8
1
  6
CONTINUOUS
 62
     2
 10
3929.752308679
 20
-2178.119069994144
 30
0.0
 11
3890.752308679
 21
-2178.119069994144
 31
0.0
  0
LINE
  5
BC
  8
1
  6
CONTINUOUS
 62
     2
 10
3908.698066964417
 20
-2191.962074691828
 30
0.0
 11
3724.12851944879
 21
-2191.962074691828
 31
0.0
  0
LINE
  5
BD
  8
1
  6
CONTINUOUS
 62
     2
 10
3929.752308679
 20
-2208.119069994144
 30
0.0
 11
3672.42712565306
 21
-2208.119069994144
 31
0.0
  0
LINE
  5
BE
  8
1
  6
CONTINUOUS
 62
     7
 10
3708.247691321004
 20
-2178.119069994144
 30
0.0
 11
3708.247691321004
 21
-2208.119069994144
 31
0.0
  0
LINE
  5
BF
  8
1
  6
CONTINUOUS
 62
     7
 10
3755.261226927027
 20
-2173.119069994144
 30
0.0
 11
3713.247691321004
 21
-2173.119069994144
 31
0.0
  0
LINE
  5
C0
  8
1
  6
CONTINUOUS
 62
     2
 10
3747.247691321004
 20
-2178.119069994144
 30
0.0
 11
3708.247691321004
 21
-2178.119069994144
 31
0.0
  0
LINE
  5
C1
  8
1
  6
CONTINUOUS
 62
     2
 10
3706.59532820737
 20
-2191.962074691828
 30
0.0
 11
3679.0
 21
-2191.962074691828
 31
0.0
  0
LINE
  5
C2
  8
1
  6
CONTINUOUS
 62
     2
 10
3565.0
 20
-2191.962074691828
 30
0.0
 11
3538.51517573574
 21
-2191.962074691828
 31
0.0
  0
LINE
  5
C3
  8
1
  6
CONTINUOUS
 62
     7
 10
3476.000000000005
 20
-2013.119069994144
 30
0.0
 11
3530.999999999891
 21
-2013.119069994144
 31
0.0
  0
LINE
  5
C4
  8
1
  6
LONG_DASHED
 62
     2
 10
3476.000000000005
 20
-2038.119069994144
 30
0.0
 11
3376.000000000005
 21
-2038.119069994144
 31
0.0
  0
LINE
  5
C5
  8
1
  6
LONG_DASHED
 62
     2
 10
3476.000000000005
 20
-2038.119069994144
 30
0.0
 11
3476.000000000005
 21
-2013.119069994144
 31
0.0
  0
LINE
  5
C6
  8
1
  6
LONG_DASHED
 62
     2
 10
3376.000000000005
 20
-2038.119069994144
 30
0.0
 11
3355.962447887945
 21
-2038.119069994144
 31
0.0
  0
LINE
  5
C7
  8
1
  6
CONTINUOUS
 62
     7
 10
3376.000000000005
 20
-2013.119069994144
 30
0.0
 11
3476.000000000005
 21
-2013.119069994144
 31
0.0
  0
LINE
  5
C8
  8
1
  6
LONG_DASHED
 62
     2
 10
3376.000000000005
 20
-2038.119069994144
 30
0.0
 11
3376.000000000005
 21
-2013.119069994144
 31
0.0
  0
LINE
  5
C9
  8
1
  6
LONG_DASHED
 62
     2
 10
3496.03755211206
 20
-2038.119069994144
 30
0.0
 11
3476.000000000005
 21
-2038.119069994144
 31
0.0
  0
LINE
  5
CA
  8
1
  6
LONG_DASHED
 62
     2
 10
3335.962447887945
 20
-2058.119069994144
 30
0.0
 11
3335.962447887945
 21
-2213.119069994144
 31
0.0
  0
LINE
  5
CB
  8
1
  6
CONTINUOUS
 62
     2
 10
3329.745290774161
 20
-2138.119069994144
 30
0.0
 11
3520.745290774161
 21
-2138.119069994144
 31
0.0
  0
LINE
  5
CC
  8
1
  6
CONTINUOUS
 62
     7
 10
3426.000000000002
 20
-2213.119069994144
 30
0.0
 11
3335.962447887945
 21
-2213.119069994144
 31
0.0
  0
LINE
  5
CD
  8
1
  6
CONTINUOUS
 62
     7
 10
3321.000000000115
 20
-2013.119069994144
 30
0.0
 11
3376.000000000005
 21
-2013.119069994144
 31
0.0
  0
LINE
  5
CE
  8
1
  6
CONTINUOUS
 62
     7
 10
3321.000000000116
 20
-2018.119069994144
 30
0.0
 11
3321.000000000115
 21
-2013.119069994144
 31
0.0
  0
LINE
  5
CF
  8
1
  6
CONTINUOUS
 62
     7
 10
3530.999999999891
 20
-2013.119069994144
 30
0.0
 11
3530.999999999893
 21
-2018.119069994144
 31
0.0
  0
LINE
  5
D0
  8
1
  6
CONTINUOUS
 62
     7
 10
3530.999999999891
 20
-2013.119069994144
 30
0.0
 11
3530.999999999893
 21
-2018.119069994144
 31
0.0
  0
LINE
  5
D1
  8
1
  6
CONTINUOUS
 62
     2
 10
3321.000000000116
 20
-2018.119069994144
 30
0.0
 11
3426.000000000002
 21
-2018.119069994144
 31
0.0
  0
LINE
  5
D2
  8
1
  6
CONTINUOUS
 62
     7
 10
3321.000000000116
 20
-2088.119069994144
 30
0.0
 11
3320.999999999955
 21
-2138.119069994144
 31
0.0
  0
LINE
  5
D3
  8
1
  6
CONTINUOUS
 62
     7
 10
3530.999999999895
 20
-2013.119069994144
 30
0.0
 11
3530.999999999893
 21
-2018.119069994144
 31
0.0
  0
LINE
  5
D4
  8
1
  6
CONTINUOUS
 62
     7
 10
3530.999999999891
 20
-2138.119069994144
 30
0.0
 11
3530.999999999893
 21
-2018.119069994144
 31
0.0
  0
LINE
  5
D5
  8
1
  6
CONTINUOUS
 62
     7
 10
3320.999999999955
 20
-2138.119069994144
 30
0.0
 11
3321.000000000116
 21
-2138.119069994144
 31
0.0
  0
LINE
  5
D6
  8
1
  6
CONTINUOUS
 62
     7
 10
3276.000000000002
 20
-2208.119069994144
 30
0.0
 11
3276.000000000002
 21
-2213.119069994144
 31
0.0
  0
LINE
  5
D7
  8
1
  6
CONTINUOUS
 62
     7
 10
3335.962447887945
 20
-2213.119069994144
 30
0.0
 11
3276.018287375631
 21
-2213.119069994144
 31
0.0
  0
LINE
  5
D8
  8
1
  6
CONTINUOUS
 62
     7
 10
3576.000000000002
 20
-2213.119069994144
 30
0.0
 11
3516.03755211206
 21
-2213.119069994144
 31
0.0
  0
LINE
  5
D9
  8
1
  6
CONTINUOUS
 62
     7
 10
3516.03755211206
 20
-2213.119069994144
 30
0.0
 11
3426.000000000002
 21
-2213.119069994144
 31
0.0
  0
LINE
  5
DA
  8
1
  6
LONG_DASHED
 62
     2
 10
3516.03755211206
 20
-2213.119069994144
 30
0.0
 11
3516.03755211206
 21
-2058.119069994144
 31
0.0
  0
LINE
  5
DB
  8
1
  6
CONTINUOUS
 62
     7
 10
3335.962447887945
 20
-2213.119069994144
 30
0.0
 11
3276.000000000002
 21
-2213.119069994144
 31
0.0
  0
LINE
  5
DC
  8
1
  6
CONTINUOUS
 62
     7
 10
3530.999999999888
 20
-2138.119069994144
 30
0.0
 11
3531.000000000049
 21
-2138.119069994144
 31
0.0
  0
LINE
  5
DD
  8
1
  6
CONTINUOUS
 62
     7
 10
3576.000000000002
 20
-2213.119069994144
 30
0.0
 11
3576.000000000002
 21
-2208.119069994144
 31
0.0
  0
LINE
  5
DE
  8
1
  6
CONTINUOUS
 62
     7
 10
3530.999999999893
 20
-2018.119069994144
 30
0.0
 11
3530.999999999891
 21
-2018.119069994144
 31
0.0
  0
LINE
  5
DF
  8
1
  6
CONTINUOUS
 62
     7
 10
3530.999999999893
 20
-2018.119069994144
 30
0.0
 11
3530.999999999891
 21
-2018.119069994144
 31
0.0
  0
LINE
  5
E0
  8
1
  6
CONTINUOUS
 62
     7
 10
3530.999999999893
 20
-2018.119069994144
 30
0.0
 11
3530.999999999891
 21
-2018.119069994144
 31
0.0
  0
LINE
  5
E1
  8
1
  6
CONTINUOUS
 62
     7
 10
3321.000000000116
 20
-2018.119069994144
 30
0.0
 11
3321.000000000116
 21
-2088.119069994144
 31
0.0
  0
LINE
  5
E2
  8
1
  6
CONTINUOUS
 62
     2
 10
3426.000000000002
 20
-2018.119069994144
 30
0.0
 11
3530.999999999893
 21
-2018.119069994144
 31
0.0
  0
LINE
  5
E3
  8
1
  6
DOT_CENTER
 62
     2
 10
3426.000000000002
 20
-2000.054635344656
 30
0.0
 11
3426.000000000002
 21
-2231.827770531141
 31
0.0
  0
LINE
  5
E4
  8
1
  6
CONTINUOUS
 62
     2
 10
3570.42712565306
 20
-2208.119069994144
 30
0.0
 11
3536.752308679
 21
-2208.119069994144
 31
0.0
  0
LINE
  5
E5
  8
1
  6
CONTINUOUS
 62
     7
 10
3536.752308679
 20
-2208.119069994144
 30
0.0
 11
3536.752308679
 21
-2178.119069994144
 31
0.0
  0
LINE
  5
E6
  8
1
  6
CONTINUOUS
 62
     7
 10
3531.752308679
 20
-2173.119069994144
 30
0.0
 11
3489.738773072977
 21
-2173.119069994144
 31
0.0
  0
LINE
  5
E7
  8
1
  6
DOT_CENTER
 62
     2
 10
3520.752308678999
 20
-2166.467141138488
 30
0.0
 11
3520.752308678999
 21
-2226.467141138488
 31
0.0
  0
LINE
  5
E8
  8
1
  6
CONTINUOUS
 62
     2
 10
3536.752308679
 20
-2178.119069994144
 30
0.0
 11
3497.752308679
 21
-2178.119069994144
 31
0.0
  0
LINE
  5
E9
  8
1
  6
CONTINUOUS
 62
     2
 10
3515.698066964417
 20
-2191.962074691828
 30
0.0
 11
3331.12851944879
 21
-2191.962074691828
 31
0.0
  0
LINE
  5
EA
  8
1
  6
CONTINUOUS
 62
     2
 10
3536.752308679
 20
-2208.119069994144
 30
0.0
 11
3279.42712565306
 21
-2208.119069994144
 31
0.0
  0
LINE
  5
EB
  8
1
  6
CONTINUOUS
 62
     7
 10
3315.247691321004
 20
-2178.119069994144
 30
0.0
 11
3315.247691321004
 21
-2208.119069994144
 31
0.0
  0
LINE
  5
EC
  8
1
  6
CONTINUOUS
 62
     7
 10
3362.261226927027
 20
-2173.119069994144
 30
0.0
 11
3320.247691321004
 21
-2173.119069994144
 31
0.0
  0
LINE
  5
ED
  8
1
  6
CONTINUOUS
 62
     2
 10
3354.247691321004
 20
-2178.119069994144
 30
0.0
 11
3315.247691321004
 21
-2178.119069994144
 31
0.0
  0
LINE
  5
EE
  8
1
  6
CONTINUOUS
 62
     2
 10
3313.59532820737
 20
-2191.962074691828
 30
0.0
 11
3286.0
 21
-2191.962074691828
 31
0.0
  0
LINE
  5
EF
  8
1
  6
CONTINUOUS
 62
     2
 10
3172.0
 20
-2191.962074691828
 30
0.0
 11
3145.51517573574
 21
-2191.962074691828
 31
0.0
  0
LINE
  5
F0
  8
1
  6
CONTINUOUS
 62
     7
 10
3083.000000000005
 20
-2063.119069994144
 30
0.0
 11
3137.999999999891
 21
-2063.119069994144
 31
0.0
  0
LINE
  5
F1
  8
1
  6
LONG_DASHED
 62
     2
 10
3083.000000000005
 20
-2088.119069994144
 30
0.0
 11
2983.000000000005
 21
-2088.119069994144
 31
0.0
  0
LINE
  5
F2
  8
1
  6
LONG_DASHED
 62
     2
 10
3083.000000000005
 20
-2088.119069994144
 30
0.0
 11
3083.000000000005
 21
-2063.119069994144
 31
0.0
  0
LINE
  5
F3
  8
1
  6
LONG_DASHED
 62
     2
 10
2983.000000000005
 20
-2088.119069994144
 30
0.0
 11
2962.962447887945
 21
-2088.119069994144
 31
0.0
  0
LINE
  5
F4
  8
1
  6
CONTINUOUS
 62
     7
 10
2983.000000000005
 20
-2063.119069994144
 30
0.0
 11
3083.000000000005
 21
-2063.119069994144
 31
0.0
  0
LINE
  5
F5
  8
1
  6
LONG_DASHED
 62
     2
 10
2983.000000000005
 20
-2088.119069994144
 30
0.0
 11
2983.000000000005
 21
-2063.119069994144
 31
0.0
  0
LINE
  5
F6
  8
1
  6
LONG_DASHED
 62
     2
 10
3103.03755211206
 20
-2088.119069994144
 30
0.0
 11
3083.000000000005
 21
-2088.119069994144
 31
0.0
  0
LINE
  5
F7
  8
1
  6
LONG_DASHED
 62
     2
 10
2942.962447887945
 20
-2108.119069994144
 30
0.0
 11
2942.962447887945
 21
-2213.119069994144
 31
0.0
  0
LINE
  5
F8
  8
1
  6
CONTINUOUS
 62
     2
 10
2936.745290774161
 20
-2138.119069994144
 30
0.0
 11
3127.745290774161
 21
-2138.119069994144
 31
0.0
  0
LINE
  5
F9
  8
1
  6
CONTINUOUS
 62
     7
 10
3033.000000000002
 20
-2213.119069994144
 30
0.0
 11
2942.962447887945
 21
-2213.119069994144
 31
0.0
  0
LINE
  5
FA
  8
1
  6
CONTINUOUS
 62
     7
 10
2928.000000000115
 20
-2063.119069994144
 30
0.0
 11
2983.000000000005
 21
-2063.119069994144
 31
0.0
  0
LINE
  5
FB
  8
1
  6
CONTINUOUS
 62
     7
 10
2928.000000000116
 20
-2068.119069994144
 30
0.0
 11
2928.000000000115
 21
-2063.119069994144
 31
0.0
  0
LINE
  5
FC
  8
1
  6
CONTINUOUS
 62
     7
 10
3137.999999999891
 20
-2063.119069994144
 30
0.0
 11
3137.999999999893
 21
-2068.119069994144
 31
0.0
  0
LINE
  5
FD
  8
1
  6
CONTINUOUS
 62
     7
 10
3137.999999999891
 20
-2063.119069994144
 30
0.0
 11
3137.999999999893
 21
-2068.119069994144
 31
0.0
  0
LINE
  5
FE
  8
1
  6
CONTINUOUS
 62
     2
 10
2928.000000000116
 20
-2068.119069994144
 30
0.0
 11
3033.000000000002
 21
-2068.119069994144
 31
0.0
  0
LINE
  5
FF
  8
1
  6
CONTINUOUS
 62
     7
 10
2928.000000000116
 20
-2138.119069994144
 30
0.0
 11
2927.999999999955
 21
-2138.119069994144
 31
0.0
  0
LINE
  5
100
  8
1
  6
CONTINUOUS
 62
     7
 10
3137.999999999895
 20
-2063.119069994144
 30
0.0
 11
3137.999999999893
 21
-2068.119069994144
 31
0.0
  0
LINE
  5
101
  8
1
  6
CONTINUOUS
 62
     7
 10
3137.999999999891
 20
-2138.119069994144
 30
0.0
 11
3137.999999999893
 21
-2068.119069994144
 31
0.0
  0
LINE
  5
102
  8
1
  6
CONTINUOUS
 62
     7
 10
2927.999999999955
 20
-2138.119069994144
 30
0.0
 11
2928.000000000116
 21
-2138.119069994144
 31
0.0
  0
LINE
  5
103
  8
1
  6
CONTINUOUS
 62
     7
 10
2883.000000000002
 20
-2208.119069994144
 30
0.0
 11
2883.000000000002
 21
-2213.119069994144
 31
0.0
  0
LINE
  5
104
  8
1
  6
CONTINUOUS
 62
     7
 10
2942.962447887945
 20
-2213.119069994144
 30
0.0
 11
2883.018287375631
 21
-2213.119069994144
 31
0.0
  0
LINE
  5
105
  8
1
  6
CONTINUOUS
 62
     7
 10
3183.000000000002
 20
-2213.119069994144
 30
0.0
 11
3123.03755211206
 21
-2213.119069994144
 31
0.0
  0
LINE
  5
106
  8
1
  6
CONTINUOUS
 62
     7
 10
3123.03755211206
 20
-2213.119069994144
 30
0.0
 11
3033.000000000002
 21
-2213.119069994144
 31
0.0
  0
LINE
  5
107
  8
1
  6
LONG_DASHED
 62
     2
 10
3123.03755211206
 20
-2213.119069994144
 30
0.0
 11
3123.03755211206
 21
-2108.119069994144
 31
0.0
  0
LINE
  5
108
  8
1
  6
CONTINUOUS
 62
     7
 10
2942.962447887945
 20
-2213.119069994144
 30
0.0
 11
2883.000000000002
 21
-2213.119069994144
 31
0.0
  0
LINE
  5
109
  8
1
  6
CONTINUOUS
 62
     7
 10
3137.999999999888
 20
-2138.119069994144
 30
0.0
 11
3138.000000000049
 21
-2138.119069994144
 31
0.0
  0
LINE
  5
10A
  8
1
  6
CONTINUOUS
 62
     7
 10
3183.000000000002
 20
-2213.119069994144
 30
0.0
 11
3183.000000000002
 21
-2208.119069994144
 31
0.0
  0
LINE
  5
10B
  8
1
  6
CONTINUOUS
 62
     7
 10
3137.999999999893
 20
-2068.119069994144
 30
0.0
 11
3137.999999999891
 21
-2068.119069994144
 31
0.0
  0
LINE
  5
10C
  8
1
  6
CONTINUOUS
 62
     7
 10
3137.999999999893
 20
-2068.119069994144
 30
0.0
 11
3137.999999999891
 21
-2068.119069994144
 31
0.0
  0
LINE
  5
10D
  8
1
  6
CONTINUOUS
 62
     7
 10
3137.999999999893
 20
-2068.119069994144
 30
0.0
 11
3137.999999999891
 21
-2068.119069994144
 31
0.0
  0
LINE
  5
10E
  8
1
  6
CONTINUOUS
 62
     7
 10
2928.000000000116
 20
-2068.119069994144
 30
0.0
 11
2928.000000000116
 21
-2138.119069994144
 31
0.0
  0
LINE
  5
10F
  8
1
  6
CONTINUOUS
 62
     2
 10
3033.000000000002
 20
-2068.119069994144
 30
0.0
 11
3137.999999999893
 21
-2068.119069994144
 31
0.0
  0
LINE
  5
110
  8
1
  6
DOT_CENTER
 62
     2
 10
3033.000000000002
 20
-2050.054635344656
 30
0.0
 11
3033.000000000002
 21
-2231.827770531141
 31
0.0
  0
LINE
  5
111
  8
1
  6
CONTINUOUS
 62
     2
 10
3177.42712565306
 20
-2208.119069994144
 30
0.0
 11
3143.752308679
 21
-2208.119069994144
 31
0.0
  0
LINE
  5
112
  8
1
  6
CONTINUOUS
 62
     7
 10
3143.752308679
 20
-2208.119069994144
 30
0.0
 11
3143.752308679
 21
-2178.119069994144
 31
0.0
  0
LINE
  5
113
  8
1
  6
CONTINUOUS
 62
     7
 10
3138.752308679
 20
-2173.119069994144
 30
0.0
 11
3096.738773072977
 21
-2173.119069994144
 31
0.0
  0
LINE
  5
114
  8
1
  6
DOT_CENTER
 62
     2
 10
3127.752308678999
 20
-2166.467141138488
 30
0.0
 11
3127.752308678999
 21
-2226.467141138488
 31
0.0
  0
LINE
  5
115
  8
1
  6
CONTINUOUS
 62
     2
 10
3143.752308679
 20
-2178.119069994144
 30
0.0
 11
3104.752308679
 21
-2178.119069994144
 31
0.0
  0
LINE
  5
116
  8
1
  6
CONTINUOUS
 62
     2
 10
3122.698066964417
 20
-2191.962074691828
 30
0.0
 11
2938.12851944879
 21
-2191.962074691828
 31
0.0
  0
LINE
  5
117
  8
1
  6
CONTINUOUS
 62
     2
 10
3143.752308679
 20
-2208.119069994144
 30
0.0
 11
2886.42712565306
 21
-2208.119069994144
 31
0.0
  0
LINE
  5
118
  8
1
  6
CONTINUOUS
 62
     7
 10
2922.247691321004
 20
-2178.119069994144
 30
0.0
 11
2922.247691321004
 21
-2208.119069994144
 31
0.0
  0
LINE
  5
119
  8
1
  6
CONTINUOUS
 62
     7
 10
2969.261226927027
 20
-2173.119069994144
 30
0.0
 11
2927.247691321004
 21
-2173.119069994144
 31
0.0
  0
LINE
  5
11A
  8
1
  6
CONTINUOUS
 62
     2
 10
2961.247691321004
 20
-2178.119069994144
 30
0.0
 11
2922.247691321004
 21
-2178.119069994144
 31
0.0
  0
LINE
  5
11B
  8
1
  6
CONTINUOUS
 62
     2
 10
2920.59532820737
 20
-2191.962074691828
 30
0.0
 11
2893.0
 21
-2191.962074691828
 31
0.0
  0
LINE
  5
11C
  8
1
  6
DOT_CENTER
 62
     2
 10
4189.000000000002
 20
-2640.000000000001
 30
0.0
 11
4189.000000000002
 21
-2677.86408159516
 31
0.0
  0
LINE
  5
11D
  8
1
  6
LONG_DASHED
 62
     2
 10
4252.738773072977
 20
-2607.342960604892
 30
0.0
 11
4275.743164991185
 21
-2620.624552471414
 31
0.0
  0
LINE
  5
11E
  8
1
  6
LONG_DASHED
 62
     2
 10
4297.624552471414
 20
-2598.743164991184
 30
0.0
 11
4284.342960604894
 21
-2575.738773072977
 31
0.0
  0
LINE
  5
11F
  8
1
  6
LONG_DASHED
 62
     2
 10
4093.657039395109
 20
-2575.738773072977
 30
0.0
 11
4080.375447528589
 21
-2598.743164991184
 31
0.0
  0
LINE
  5
120
  8
1
  6
LONG_DASHED
 62
     2
 10
4102.256835008819
 20
-2620.624552471414
 30
0.0
 11
4125.261226927027
 21
-2607.342960604892
 31
0.0
  0
LINE
  5
121
  8
1
  6
DOT_CENTER
 62
     2
 10
4071.713894902197
 20
-2629.286105097805
 30
0.0
 11
4189.000000000002
 21
-2512.0
 31
0.0
  0
LINE
  5
122
  8
1
  6
DOT_CENTER
 62
     2
 10
4189.000000000002
 20
-2505.000000000001
 30
0.0
 11
4189.000000000002
 21
-2512.0
 31
0.0
  0
LINE
  5
123
  8
1
  6
DOT_CENTER
 62
     2
 10
4301.208631201258
 20
-2624.208631201257
 30
0.0
 11
4189.000000000002
 21
-2512.0
 31
0.0
  0
LINE
  5
124
  8
1
  6
DOT_CENTER
 62
     2
 10
4189.000000000002
 20
-2512.0
 30
0.0
 11
4189.000000000002
 21
-2640.000000000001
 31
0.0
  0
ARC
  5
125
  8
1
  6
LONG_DASHED
 62
     2
 10
4283.752308678999
 20
-2417.247691321003
 30
0.0
 40
16.00000000000007
 50
330.0000000000039
 51
119.9999999999981
  0
ARC
  5
126
  8
1
  6
LONG_DASHED
 62
     2
 10
4189.012931127221
 20
-2511.987068872788
 30
0.0
 40
114.6682059330765
 50
33.76177932405204
 51
56.238220675953
  0
ARC
  5
127
  8
1
  6
LONG_DASHED
 62
     2
 10
4188.987068872782
 20
-2511.987068872788
 30
0.0
 40
114.6682059330768
 50
123.761779324047
 51
146.2382206759481
  0
ARC
  5
128
  8
1
  6
LONG_DASHED
 62
     2
 10
4094.247691321004
 20
-2417.247691321003
 30
0.0
 40
16.00000000000137
 50
59.99999999999908
 51
209.9999999999994
  0
ARC
  5
129
  8
1
  6
CONTINUOUS
 62
     2
 10
4228.231631990921
 20
-2090.716517980289
 30
0.0
 40
177.0000000000027
 50
105.9749701680016
 51
143.1944888224115
  0
ARC
  5
12A
  8
1
  6
CONTINUOUS
 62
     2
 10
4149.768368009082
 20
-2090.716517980289
 30
0.0
 40
177.000000000002
 50
36.47826086306281
 51
73.89806383699546
  0
ARC
  5
12B
  8
1
  6
DOT_CENTER
 62
     2
 10
4189.000000000002
 20
-2512.0
 30
0.0
 40
134.0
 50
0.0
 51
180.0
  0
ARC
  5
12C
  8
1
  6
DOT_CENTER
 62
     7
 10
4094.260622448323
 20
-1590.572174313916
 30
0.0
 40
16.01828737562996
 50
59.99999999999935
 51
210.0000000000003
  0
ARC
  5
12D
  8
1
  6
CONTINUOUS
 62
     2
 10
4094.260622448323
 20
-1590.572174313916
 30
0.0
 40
11.01828737562083
 50
68.98791478177286
 51
209.9999999999994
  0
ARC
  5
12E
  8
1
  6
DOT_CENTER
 62
     7
 10
4094.260622448323
 20
-1590.572174313916
 30
0.0
 40
16.01828737562996
 50
59.99999999999935
 51
210.0000000000003
  0
ARC
  5
12F
  8
1
  6
CONTINUOUS
 62
     2
 10
4283.739377551681
 20
-1590.572174313916
 30
0.0
 40
11.01828737562005
 50
338.9879147817801
 51
119.9999999999943
  0
ARC
  5
130
  8
1
  6
DOT_CENTER
 62
     7
 10
4283.739377551681
 20
-1590.572174313916
 30
0.0
 40
16.01828737563005
 50
330.0000000000005
 51
119.9999999999964
  0
ARC
  5
131
  8
1
  6
CONTINUOUS
 62
     2
 10
4283.739377551681
 20
-1780.050929417275
 30
0.0
 40
11.01828737562847
 50
240.0000000000028
 51
248.9879147817774
  0
ARC
  5
132
  8
1
  6
CONTINUOUS
 62
     2
 10
4283.739377551681
 20
-1780.050929417275
 30
0.0
 40
11.01828737561929
 50
248.9879147817774
 51
30.00000000000452
  0
ARC
  5
133
  8
1
  6
DOT_CENTER
 62
     7
 10
4283.739377551681
 20
-1780.050929417275
 30
0.0
 40
16.01828737562829
 50
240.0000000000015
 51
30.00000000000307
  0
ARC
  5
134
  8
1
  6
CONTINUOUS
 62
     7
 10
4034.000000000116
 20
-2138.119069994144
 30
0.0
 40
49.9999999998391
 50
317.4405440689337
 51
0.0
  0
ARC
  5
135
  8
1
  6
CONTINUOUS
 62
     7
 10
4048.73151757682
 20
-2151.646168348617
 30
0.0
 40
30.00000000001867
 50
289.7433841920825
 51
317.4405440689335
  0
ARC
  5
136
  8
1
  6
CONTINUOUS
 62
     7
 10
4069.000000000002
 20
-2208.119069994144
 30
0.0
 40
30.00000000001647
 50
109.7433841920785
 51
180.0
  0
ARC
  5
137
  8
1
  6
CONTINUOUS
 62
     7
 10
4034.000000000001
 20
-2138.119069994144
 30
0.0
 40
50.00000000011197
 50
317.3275545854208
 51
0.0
  0
ARC
  5
138
  8
1
  6
CONTINUOUS
 62
     7
 10
4343.999999999888
 20
-2138.119069994144
 30
0.0
 40
49.99999999983902
 50
180.0
 51
222.5594559310663
  0
ARC
  5
139
  8
1
  6
CONTINUOUS
 62
     7
 10
4329.268482423184
 20
-2151.646168348617
 30
0.0
 40
30.00000000001882
 50
222.5594559310659
 51
250.2566158079183
  0
ARC
  5
13A
  8
1
  6
CONTINUOUS
 62
     7
 10
4309.000000000002
 20
-2208.119069994144
 30
0.0
 40
30.0
 50
0.0
 51
70.25661580792068
  0
ARC
  5
13B
  8
1
  6
CONTINUOUS
 62
     7
 10
4344.000000000003
 20
-2138.119069994144
 30
0.0
 40
50.00000000011187
 50
180.0
 51
222.6724454145788
  0
ARC
  5
13C
  8
1
  6
CONTINUOUS
 62
     2
 10
4094.260622448323
 20
-1780.050929417275
 30
0.0
 40
11.01828737563093
 50
150.0000000000019
 51
291.0120852182204
  0
ARC
  5
13D
  8
1
  6
DOT_CENTER
 62
     7
 10
4094.260622448323
 20
-1780.050929417275
 30
0.0
 40
16.018287375631
 50
149.9999999999978
 51
300.0000000000007
  0
ARC
  5
13E
  8
1
  6
CONTINUOUS
 62
     7
 10
4189.000000000002
 20
-2512.0
 30
0.0
 40
150.0
 50
0.0
 51
180.0
  0
ARC
  5
13F
  8
1
  6
CONTINUOUS
 62
     7
 10
4189.000000000002
 20
-2512.0
 30
0.0
 40
150.0
 50
0.0
 51
180.0
  0
ARC
  5
140
  8
1
  6
CONTINUOUS
 62
     7
 10
4189.000000000002
 20
-2512.0
 30
0.0
 40
90.0
 50
0.0
 51
180.0
  0
ARC
  5
141
  8
1
  6
DOT_CENTER
 62
     7
 10
4189.000000000002
 20
-2512.0
 30
0.0
 40
90.0
 50
0.0
 51
180.0
  0
ARC
  5
142
  8
1
  6
CONTINUOUS
 62
     7
 10
4189.000000000002
 20
-2512.0
 30
0.0
 40
50.0
 50
0.0
 51
180.0
  0
ARC
  5
143
  8
1
  6
CONTINUOUS
 62
     7
 10
4189.000000000002
 20
-2512.0
 30
0.0
 40
50.0
 50
0.0
 51
180.0
  0
ARC
  5
144
  8
1
  6
CONTINUOUS
 62
     2
 10
4273.689059346023
 20
-2151.646168348617
 30
0.0
 40
30.0000000000177
 50
225.7057965704032
 51
250.2566158079183
  0
ARC
  5
145
  8
1
  6
CONTINUOUS
 62
     2
 10
4241.631292636852
 20
-2245.307072014022
 30
0.0
 40
69.00000000001505
 50
32.61263496764336
 51
71.47416350104751
  0
ARC
  5
146
  8
1
  6
CONTINUOUS
 62
     2
 10
4104.310940653981
 20
-2151.646168348617
 30
0.0
 40
30.00000000001883
 50
289.7433841920833
 51
314.2942034295968
  0
ARC
  5
147
  8
1
  6
CONTINUOUS
 62
     2
 10
4136.368707363152
 20
-2245.307072014022
 30
0.0
 40
69.00000000001407
 50
108.5258364989518
 51
147.3873650323567
  0
ARC
  5
148
  8
1
  6
CONTINUOUS
 62
     2
 10
3858.231631990921
 20
-2140.716517980289
 30
0.0
 40
177.0000000000027
 50
105.9749701680016
 51
143.1944888224114
  0
ARC
  5
149
  8
1
  6
CONTINUOUS
 62
     2
 10
3779.768368009082
 20
-2140.716517980289
 30
0.0
 40
177.0000000000017
 50
36.4782608630629
 51
73.89806383699546
  0
ARC
  5
14A
  8
1
  6
CONTINUOUS
 62
     7
 10
3664.000000000116
 20
-2138.119069994144
 30
0.0
 40
49.9999999998391
 50
317.4405440689337
 51
0.0
  0
ARC
  5
14B
  8
1
  6
CONTINUOUS
 62
     7
 10
3678.73151757682
 20
-2151.646168348617
 30
0.0
 40
30.00000000001867
 50
289.7433841920825
 51
317.4405440689335
  0
ARC
  5
14C
  8
1
  6
CONTINUOUS
 62
     7
 10
3699.000000000002
 20
-2208.119069994144
 30
0.0
 40
30.00000000001647
 50
109.7433841920785
 51
180.0
  0
ARC
  5
14D
  8
1
  6
CONTINUOUS
 62
     7
 10
3664.000000000001
 20
-2138.119069994144
 30
0.0
 40
50.00000000011197
 50
317.3275545854208
 51
0.0
  0
ARC
  5
14E
  8
1
  6
CONTINUOUS
 62
     7
 10
3973.999999999888
 20
-2138.119069994144
 30
0.0
 40
49.99999999983902
 50
180.0
 51
222.5594559310663
  0
ARC
  5
14F
  8
1
  6
CONTINUOUS
 62
     7
 10
3959.268482423184
 20
-2151.646168348617
 30
0.0
 40
30.00000000001915
 50
222.5594559310653
 51
250.2566158079175
  0
ARC
  5
150
  8
1
  6
CONTINUOUS
 62
     7
 10
3939.000000000002
 20
-2208.119069994144
 30
0.0
 40
30.0
 50
0.0
 51
70.25661580792068
  0
ARC
  5
151
  8
1
  6
CONTINUOUS
 62
     7
 10
3974.000000000003
 20
-2138.119069994144
 30
0.0
 40
50.00000000011232
 50
180.0
 51
222.6724454145781
  0
ARC
  5
152
  8
1
  6
CONTINUOUS
 62
     2
 10
3903.689059346023
 20
-2151.646168348617
 30
0.0
 40
30.0000000000177
 50
225.7057965704032
 51
250.2566158079183
  0
ARC
  5
153
  8
1
  6
CONTINUOUS
 62
     2
 10
3871.631292636852
 20
-2245.307072014022
 30
0.0
 40
69.00000000001543
 50
32.61263496764315
 51
71.47416350104751
  0
ARC
  5
154
  8
1
  6
CONTINUOUS
 62
     2
 10
3734.310940653981
 20
-2151.646168348617
 30
0.0
 40
30.00000000001852
 50
289.7433841920817
 51
314.2942034295968
  0
ARC
  5
155
  8
1
  6
CONTINUOUS
 62
     2
 10
3766.368707363152
 20
-2245.307072014022
 30
0.0
 40
69.00000000001435
 50
108.5258364989525
 51
147.3873650323569
  0
ARC
  5
156
  8
1
  6
CONTINUOUS
 62
     2
 10
3465.231631990921
 20
-2190.716517980289
 30
0.0
 40
177.0000000000027
 50
105.9749701680016
 51
143.1944888224115
  0
ARC
  5
157
  8
1
  6
CONTINUOUS
 62
     2
 10
3386.768368009082
 20
-2190.716517980289
 30
0.0
 40
177.0000000000015
 50
36.47826086306284
 51
73.89806383699546
  0
ARC
  5
158
  8
1
  6
CONTINUOUS
 62
     7
 10
3271.000000000116
 20
-2138.119069994144
 30
0.0
 40
49.9999999998391
 50
317.4405440689337
 51
0.0
  0
ARC
  5
159
  8
1
  6
CONTINUOUS
 62
     7
 10
3285.73151757682
 20
-2151.646168348617
 30
0.0
 40
30.00000000001867
 50
289.7433841920825
 51
317.4405440689335
  0
ARC
  5
15A
  8
1
  6
CONTINUOUS
 62
     7
 10
3306.000000000002
 20
-2208.119069994144
 30
0.0
 40
30.00000000001647
 50
109.7433841920785
 51
180.0
  0
ARC
  5
15B
  8
1
  6
CONTINUOUS
 62
     7
 10
3271.000000000001
 20
-2138.119069994144
 30
0.0
 40
50.00000000011197
 50
317.3275545854208
 51
0.0
  0
ARC
  5
15C
  8
1
  6
CONTINUOUS
 62
     7
 10
3580.999999999888
 20
-2138.119069994144
 30
0.0
 40
49.99999999983902
 50
180.0
 51
222.5594559310663
  0
ARC
  5
15D
  8
1
  6
CONTINUOUS
 62
     7
 10
3566.268482423184
 20
-2151.646168348617
 30
0.0
 40
30.00000000001915
 50
222.5594559310653
 51
250.2566158079175
  0
ARC
  5
15E
  8
1
  6
CONTINUOUS
 62
     7
 10
3546.000000000002
 20
-2208.119069994144
 30
0.0
 40
30.0
 50
0.0
 51
70.25661580792068
  0
ARC
  5
15F
  8
1
  6
CONTINUOUS
 62
     7
 10
3581.000000000003
 20
-2138.119069994144
 30
0.0
 40
50.00000000011232
 50
180.0
 51
222.6724454145781
  0
ARC
  5
160
  8
1
  6
CONTINUOUS
 62
     2
 10
3510.689059346023
 20
-2151.646168348617
 30
0.0
 40
30.0000000000177
 50
225.7057965704032
 51
250.2566158079183
  0
ARC
  5
161
  8
1
  6
CONTINUOUS
 62
     2
 10
3478.631292636852
 20
-2245.307072014022
 30
0.0
 40
69.00000000001543
 50
32.61263496764315
 51
71.47416350104751
  0
ARC
  5
162
  8
1
  6
CONTINUOUS
 62
     2
 10
3341.310940653981
 20
-2151.646168348617
 30
0.0
 40
30.00000000001852
 50
289.7433841920817
 51
314.2942034295968
  0
ARC
  5
163
  8
1
  6
CONTINUOUS
 62
     2
 10
3373.368707363152
 20
-2245.307072014022
 30
0.0
 40
69.00000000001435
 50
108.5258364989525
 51
147.3873650323569
  0
ARC
  5
164
  8
1
  6
CONTINUOUS
 62
     2
 10
3072.231631990921
 20
-2240.716517980289
 30
0.0
 40
177.0000000000027
 50
105.9749701680016
 51
143.1944888224115
  0
ARC
  5
165
  8
1
  6
CONTINUOUS
 62
     2
 10
2993.768368009082
 20
-2240.716517980289
 30
0.0
 40
177.0000000000015
 50
36.47826086306284
 51
73.89806383699546
  0
ARC
  5
166
  8
1
  6
CONTINUOUS
 62
     7
 10
2878.000000000116
 20
-2138.119069994144
 30
0.0
 40
49.9999999998391
 50
317.4405440689337
 51
0.0
  0
ARC
  5
167
  8
1
  6
CONTINUOUS
 62
     7
 10
2892.73151757682
 20
-2151.646168348617
 30
0.0
 40
30.00000000001867
 50
289.7433841920825
 51
317.4405440689335
  0
ARC
  5
168
  8
1
  6
CONTINUOUS
 62
     7
 10
2913.000000000002
 20
-2208.119069994144
 30
0.0
 40
30.00000000001647
 50
109.7433841920785
 51
180.0
  0
ARC
  5
169
  8
1
  6
CONTINUOUS
 62
     7
 10
2878.000000000001
 20
-2138.119069994144
 30
0.0
 40
50.00000000011197
 50
317.3275545854208
 51
0.0
  0
ARC
  5
16A
  8
1
  6
CONTINUOUS
 62
     7
 10
3187.999999999888
 20
-2138.119069994144
 30
0.0
 40
49.99999999983902
 50
180.0
 51
222.5594559310663
  0
ARC
  5
16B
  8
1
  6
CONTINUOUS
 62
     7
 10
3173.268482423184
 20
-2151.646168348617
 30
0.0
 40
30.00000000001915
 50
222.5594559310653
 51
250.2566158079175
  0
ARC
  5
16C
  8
1
  6
CONTINUOUS
 62
     7
 10
3153.000000000002
 20
-2208.119069994144
 30
0.0
 40
30.0
 50
0.0
 51
70.25661580792068
  0
ARC
  5
16D
  8
1
  6
CONTINUOUS
 62
     7
 10
3188.000000000003
 20
-2138.119069994144
 30
0.0
 40
50.00000000011232
 50
180.0
 51
222.6724454145781
  0
ARC
  5
16E
  8
1
  6
CONTINUOUS
 62
     2
 10
3117.689059346023
 20
-2151.646168348617
 30
0.0
 40
30.0000000000177
 50
225.7057965704032
 51
250.2566158079183
  0
ARC
  5
16F
  8
1
  6
CONTINUOUS
 62
     2
 10
3085.631292636852
 20
-2245.307072014022
 30
0.0
 40
69.00000000001543
 50
32.61263496764315
 51
71.47416350104751
  0
ARC
  5
170
  8
1
  6
CONTINUOUS
 62
     2
 10
2948.310940653981
 20
-2151.646168348617
 30
0.0
 40
30.00000000001852
 50
289.7433841920817
 51
314.2942034295968
  0
ARC
  5
171
  8
1
  6
CONTINUOUS
 62
     2
 10
2980.368707363152
 20
-2245.307072014022
 30
0.0
 40
69.00000000001435
 50
108.5258364989525
 51
147.3873650323569
  0
ARC
  5
172
  8
1
  6
LONG_DASHED
 62
     2
 10
4283.752308678999
 20
-2606.752308678998
 30
0.0
 40
16.00000000000092
 50
240.0000000000019
 51
29.99999999999609
  0
ARC
  5
173
  8
1
  6
LONG_DASHED
 62
     2
 10
4189.012931127221
 20
-2512.012931127213
 30
0.0
 40
114.6682059330772
 50
303.7617793240469
 51
326.238220675948
  0
ARC
  5
174
  8
1
  6
LONG_DASHED
 62
     2
 10
4188.987068872782
 20
-2512.012931127213
 30
0.0
 40
114.6682059330769
 50
213.7617793240519
 51
236.2382206759531
  0
ARC
  5
175
  8
1
  6
LONG_DASHED
 62
     2
 10
4094.247691321004
 20
-2606.752308678998
 30
0.0
 40
15.9999999999985
 50
150.0000000000007
 51
300.0000000000009
  0
ARC
  5
176
  8
1
  6
DOT_CENTER
 62
     2
 10
4189.000000000002
 20
-2512.0
 30
0.0
 40
134.0
 50
180.0
 51
0.0
  0
ARC
  5
177
  8
1
  6
CONTINUOUS
 62
     7
 10
4189.000000000002
 20
-2512.0
 30
0.0
 40
150.0
 50
180.0
 51
0.0
  0
ARC
  5
178
  8
1
  6
CONTINUOUS
 62
     7
 10
4189.000000000002
 20
-2512.0
 30
0.0
 40
150.0
 50
180.0
 51
0.0
  0
ARC
  5
179
  8
1
  6
CONTINUOUS
 62
     7
 10
4189.000000000002
 20
-2512.0
 30
0.0
 40
90.0
 50
180.0
 51
0.0
  0
ARC
  5
17A
  8
1
  6
DOT_CENTER
 62
     7
 10
4189.000000000002
 20
-2512.0
 30
0.0
 40
90.0
 50
180.0
 51
0.0
  0
ARC
  5
17B
  8
1
  6
CONTINUOUS
 62
     7
 10
4189.000000000002
 20
-2512.0
 30
0.0
 40
50.0
 50
180.0
 51
0.0
  0
ARC
  5
17C
  8
1
  6
CONTINUOUS
 62
     7
 10
4189.000000000002
 20
-2512.0
 30
0.0
 40
50.0
 50
180.0
 51
0.0
  0
CIRCLE
  5
17D
  8
1
  6
CONTINUOUS
 62
     7
 10
4283.752308678999
 20
-2417.247691321003
 30
0.0
 40
5.999999999999727
  0
CIRCLE
  5
17E
  8
1
  6
CONTINUOUS
 62
     7
 10
4094.247691321004
 20
-2417.247691321003
 30
0.0
 40
6.00000000000037
  0
CIRCLE
  5
17F
  8
1
  6
CONTINUOUS
 62
     7
 10
4189.000000000002
 20
-1685.311551865595
 30
0.0
 40
49.99999999999944
  0
CIRCLE
  5
180
  8
1
  6
CONTINUOUS
 62
     7
 10
4189.000000000002
 20
-1685.311551865595
 30
0.0
 40
149.9999999999997
  0
CIRCLE
  5
181
  8
1
  6
LONG_DASHED
 62
     2
 10
4189.000000000002
 20
-1685.311551865595
 30
0.0
 40
104.9999999999996
  0
CIRCLE
  5
182
  8
1
  6
LONG_DASHED
 62
     2
 10
4189.000000000002
 20
-1685.311551865595
 30
0.0
 40
89.9999999999996
  0
CIRCLE
  5
183
  8
1
  6
CONTINUOUS
 62
     7
 10
4283.752308678999
 20
-2606.752308678998
 30
0.0
 40
5.999999999999727
  0
CIRCLE
  5
184
  8
1
  6
CONTINUOUS
 62
     7
 10
4094.247691321004
 20
-2606.752308678998
 30
0.0
 40
6.00000000000037
  0
ARC
  5
185
  8
1
  6
LONG_DASHED
 62
     2
 10
4259.03755211206
 20
-1958.119069994144
 30
0.0
 40
20.0
 50
0.0
 51
90.0
  0
ARC
  5
186
  8
1
  6
LONG_DASHED
 62
     2
 10
4118.962447887945
 20
-1958.119069994144
 30
0.0
 40
20.0
 50
90.0
 51
180.0
  0
ARC
  5
187
  8
1
  6
CONTINUOUS
 62
     7
 10
4104.000000000002
 20
-1600.311551865595
 30
0.0
 40
20.0
 50
90.0
 51
180.0
  0
ARC
  5
188
  8
1
  6
CONTINUOUS
 62
     7
 10
4274.000000000002
 20
-1600.311551865595
 30
0.0
 40
20.0
 50
0.00000000000261
 51
90.0
  0
ARC
  5
189
  8
1
  6
CONTINUOUS
 62
     7
 10
4274.000000000001
 20
-1770.311551865595
 30
0.0
 40
20.0
 50
270.0
 51
0.0
  0
ARC
  5
18A
  8
1
  6
CONTINUOUS
 62
     7
 10
4104.000000000002
 20
-1770.311551865595
 30
0.0
 40
20.00000000000091
 50
180.0
 51
269.9999999999974
  0
ARC
  5
18B
  8
1
  6
CONTINUOUS
 62
     7
 10
4294.752308679
 20
-2178.119069994144
 30
0.0
 40
5.0
 50
0.0
 51
90.0
  0
ARC
  5
18C
  8
1
  6
CONTINUOUS
 62
     7
 10
4083.247691321004
 20
-2178.119069994144
 30
0.0
 40
5.0
 50
90.0
 51
180.0
  0
ARC
  5
18D
  8
1
  6
LONG_DASHED
 62
     2
 10
3889.03755211206
 20
-2008.119069994144
 30
0.0
 40
20.0
 50
0.0
 51
90.0
  0
ARC
  5
18E
  8
1
  6
LONG_DASHED
 62
     2
 10
3748.962447887945
 20
-2008.119069994144
 30
0.0
 40
20.0
 50
90.0
 51
180.0
  0
ARC
  5
18F
  8
1
  6
CONTINUOUS
 62
     7
 10
3924.752308679
 20
-2178.119069994144
 30
0.0
 40
5.0
 50
0.0
 51
90.0
  0
ARC
  5
190
  8
1
  6
CONTINUOUS
 62
     7
 10
3713.247691321004
 20
-2178.119069994144
 30
0.0
 40
5.0
 50
90.0
 51
180.0
  0
ARC
  5
191
  8
1
  6
LONG_DASHED
 62
     2
 10
3496.03755211206
 20
-2058.119069994144
 30
0.0
 40
20.0
 50
0.0
 51
90.0
  0
ARC
  5
192
  8
1
  6
LONG_DASHED
 62
     2
 10
3355.962447887945
 20
-2058.119069994144
 30
0.0
 40
20.0
 50
90.0
 51
180.0
  0
ARC
  5
193
  8
1
  6
CONTINUOUS
 62
     7
 10
3531.752308679
 20
-2178.119069994144
 30
0.0
 40
5.0
 50
0.0
 51
90.0
  0
ARC
  5
194
  8
1
  6
CONTINUOUS
 62
     7
 10
3320.247691321004
 20
-2178.119069994144
 30
0.0
 40
5.0
 50
90.0
 51
180.0
  0
ARC
  5
195
  8
1
  6
LONG_DASHED
 62
     2
 10
3103.03755211206
 20
-2108.119069994144
 30
0.0
 40
20.0
 50
0.0
 51
90.0
  0
ARC
  5
196
  8
1
  6
LONG_DASHED
 62
     2
 10
2962.962447887945
 20
-2108.119069994144
 30
0.0
 40
20.0
 50
90.0
 51
180.0
  0
ARC
  5
197
  8
1
  6
CONTINUOUS
 62
     7
 10
3138.752308679
 20
-2178.119069994144
 30
0.0
 40
5.0
 50
0.0
 51
90.0
  0
ARC
  5
198
  8
1
  6
CONTINUOUS
 62
     7
 10
2927.247691321004
 20
-2178.119069994144
 30
0.0
 40
5.0
 50
90.0
 51
180.0
  0
ENDSEC
  0
EOF
